Song name
# A B C D E F G H I J K L M N O P Q R S T U V W X Y Z

Trivium - Upon The Shores tab

This is Triviums Upon The Shores bonus track from Shogun theyre 4 studio album played in 
standard i only have the backing parts and some of the pre chorus and chorus down

e|------------------------------------| Intro x2
b|------------------------------------|
G|------------------------------------|
D|--2-4---------2-4---------2-4-------|
A|--0-2---------0-2---------0-2-------|
E|------0-0-0-0-----0-0-0-0-----0-0---|
        * * * *     * * * *     * *

e|------------------------------------|
b|------------------------------------|
G|------------------------------------|
D|--4-5---------4-5---------4-5-2-5-4-|
A|--2-3-3-3-3-3-2-3-3-3-3-3-2-3-0-3-2-|
E|------------------------------------|
        * * * *     * * * *

e|------------------------------------|
b|------------------------------------|
G|------------------------------------|
D|--2-4---------2-4---------2-4-------|
A|--0-2---------0-2---------0-2-------|
E|------0-0-0-0-----0-0-0-0-----0-0---|
        * * * *     * * * *     * *


e|------------------------------------|
b|------------------------------------|
G|------------------------------------|
D|--4-5---------4-5-------------------|
A|--2-3-3-3-3-3-2-3-3-3-3-3-------5ph-|
E|--------------------------0-3-2-----|
        * * * *     * * * * * * *


pre verse
e|------------------------------------|
b|------------------------------------|
G|------------------------------------|
D|-2----------------------------------|
A|-2------------------5-0-3-2---------|
E|-0--------------0-3---------5-3-----|
                  * *   * * * * *
Verse
e|------------------------------------|
b|------------------------------------|
G|------------------------------------|
D|-----------------------------2-4----|
A|-2---------------------------0-2----|
E|-0-0-0-0-0-0-0-0-0-0-0-0-0-0--------|
     * * * * * * * * * * * * *
e|------------------------------------|
b|------------------------------------|
G|------------------------------------|
D|-------------2-2-4--8-7-------------|
A|-------------0-0-2--6-5-------------|
E|-0-0-0-0-0-0------------------------|
   * * * * * *
e|------------------------------------|
b|------------------------------------|
G|------------------------------------|
D|-----------------------------2-4----|
A|-2---------------------------0-2----|
E|-0-0-0-0-0-0-0-0-0-0-0-0-0-0--------|
   * * * * * * * * * * * * * *
e|------------------------------------|
b|------------------------------------|
G|------------------------------------|
D|------------------------------------|
A|-----------------5-0-3-2------------|
E|-0-0-0-0-0-0-0-3---------5-3--------|
   * * * * * * * *   * * * * *

e|------------------------------------|
b|------------------------------------|
G|------------------------------------|
D|-----------------------------2-4----|
A|-2---------------------------0-2----|
E|-0-0-0-0-0-0-0-0-0-0-0-0-0-0--------|
     * * * * * * * * * * * * *
e|------------------------------------|
b|------------------------------------|
G|------------------------------------|
D|-------------2-2-4--8-7-------------|
A|-------------0-0-2--6-5-------------|
E|-0-0-0-0-0-0------------------------|
   * * * * * *

Pre chorus x2
e|------------------------------------|
b|------------------------------------|
G|------------------------------------|
D|-4~------------5~-------------------|
A|-2~------------3~-------------------|
E|-2~------------3~-------------------|
                       play second time
e|-------------------|----------------|
b|-------------------|----------------|
G|-------------------|----------------|
D|-4~------------5~--|----------------|
A|-2~------------3~--|---7-5-4-2------|
E|-2~------------3~--|---5-3-2-0------|

Chorus
e|------------------------------------|
b|------------------------------------|
G|------------------------------------|
D|-2~------------5~-------------------|
A|-2~------------3~-------------------|
E|-0~------------3~-------------------|

e|------------------------------------|
b|------------------------------------|
G|------------------------------------|
D|-2~------------5~-------------------|
A|-2~------------3~-------------------|
E|-0~------------3~-------------------|

intro once
pre verse
verse x2
Pre Chorus
ChorusX2

Bridge 
e|--------------------------------------------------|
b|--------------------------------------------------|
G|--------------------0-----------------------------|
D|---4---4---4---4---4-4---4---4---4---4------0-----|
A|---4---4---4---4---------4---4---4---4------------|
E|-0---0---0---0---0-----0---0---0---0----2-3-------|
   *   *   *   *   *     *   *   *   *         
Play after this twice
e|--------------------------------------------------|
b|--------------------------------------------------|
G|--------------------0-----------------------------|
D|---4---4---4---4---4-4---4---4---4---4------------|
A|---4---4---4---4---------4---4---4---4--5--7------|
E|-0---0---0---0---0-----0---0---0---0----3--5------|
   *   *   *   *   *     *   *   *   *       
e|--------------------------------------------------|
b|--------------------------------------------------|
G|--------------------0-----------------------------|
D|---4---4---4---4---4-4---4---4---4---4------0-----|
A|---4---4---4---4---------4---4---4---4------------|
E|-0---0---0---0---0-----0---0---0---0----2-3-------|
   *   *   *   *   *     *   *   *   *       

thats all i have but ill update when i have more and the solo down

Legend:
ph = pinch harmonic
* = palm mute
~ = let ring
Tap to rate this tab
 
# A B C D E F G H I J K L M N O P Q R S T U V W X Y Z