Song name
# A B C D E F G H I J K L M N O P Q R S T U V W X Y Z

Trivium - Sworn tab

This is the sweep solo from the song Sworn on Trivium's Demo CD.
I am pretty sure it's 100% correct but if you have any corrections you can e-mail
me(killsw1tch_666@hotmail.com).

E-19p15------15-19p15------15-22p15------15-21p15------15------|
B------17--17--------17--17--------17--17--------17--17--------|
G--------16------------16------------16------------16----------|
D--------------------------------------------------------------|
A--------------------------------------------------------------|
E--------------------------------------------------------------|

E-17p14------14-17p14------14-21p14------14-19p14------14------|
B------15--15--------15--15--------15--15--------15--15--------|
G--------14------------14------------14------------14----------|
D--------------------------------------------------------------|
A--------------------------------------------------------------|
E--------------------------------------------------------------|

E-15p12------12-15p12------12-19p12------12-17p12------12------|
B------13--13--------13--13--------13--13--------13--13--------|
G--------12------------12------------12------------12----------|
D--------------------------------------------------------------|
A--------------------------------------------------------------|
E--------------------------------------------------------------|

E-14p11------11-14p11------11-17p11------11-15p11------11------|
B------12--12--------12--12--------12--12--------12--12--------|
G--------11------------11------------11------------11----------|
D--------------------------------------------------------------|
A--------------------------------------------------------------|
E--------------------------------------------------------------|

And then repeat it all.
Tap to rate this tab
 
# A B C D E F G H I J K L M N O P Q R S T U V W X Y Z