Song name
# A B C D E F G H I J K L M N O P Q R S T U V W X Y Z

Trivium - Iron Maiden tab

Help us improve GuitareTab! Take a short survey!
Band : Trivium
Song : Iron Maiden
Album: Shogun(Special Edition), Kerrang Maiden Heaven
Tab  : Jimmy Strong
Email: Strng.james@Gmail.com

Please Note (*I ONLY TABBED THE PARTS THAT ARE DIFFERENT FROM MAIDEN*)
http://www.ultimate-guitar.com/tabs/i/iron_maiden/iron_maiden_power_tab.htm


Verse
e|--------------|
b|------10------|
g|------9-------| X 5
d|------7-------|
a|0-0-0---0-0-0-|
e|--------------|

e|-------------------|
b|------8------------|
g|------7------- X 5-|
d|------5------------|
a|0-0-0---0-0-0------|
e|-------------------|


Chorus

e|----------------------------|
b|----------------------------|
g|-5---5---------7---7--------|
d|-5---5--5---5--7---7--77777-|
a|-3-x-3x-5---5--5-x-5x-55555-|
e|--------3-x-3x--------------|
(                      pm----)
Related for Iron Maiden tab