Song name
# A B C D E F G H I J K L M N O P Q R S T U V W X Y Z

Trivium - And Sadness Will Sear Acoustic chords

Tabbed by: Kc Burkhart
Email:Kacyburkhart17@yahoo.com

Tuning:standard

Ive been turning alot of my fav songs into acoustic lately so this is what i got for 
song, youll have to listen to the song to get the beat and stuff right but it sounds good 
me, any corrections or anything email me and ill change it if it sounds better

Im gunna work on a good acoustic solo for the song just gimme sum time

Intro (youll also play this during the chorus)

e|-------------2-2-2-2-2--0-0-0-0-0--|
B|-------------0-0-0-0-0--0-0-0-0-0--|
G|-------------2-2-2-2-2--0-0-0-0-0--|
D|-5-5-5-5-5---1-1-1-1-1--2-2-2-2-2--|
A|-5-5-5-5-5---2-2-2-2-2--2-2-2-2-2--|
E|-3-3-3-3-3--------------0-0-0-0-0--|

after intro
Youll really have to listen to the song to get the timing and beat down and if it doesnt 
right to you play it along with the song youll see its right

"Shepherd is chased by the wolves"
e|--------------------------------------------------------------|
B|--------------------------------------------------------------|
G|-----------5/7-5-5-5-5-5-5\7----------------------------------|repeat
D|-5-5-5-5-5-5/7-5-5-5-5-5-5\7----------------------------------|
A|-5-5-5-5-5-3/5-3-3-3-3-3-3\5----------------------------------|
E|-3-3-3-3-3----------------------------------------------------|
Tap to rate this tab
# A B C D E F G H I J K L M N O P Q R S T U V W X Y Z