Song name
# A B C D E F G H I J K L M N O P Q R S T U V W X Y Z

Trivium - He Who Spawned The Furies tab

Tuning: EADGBE

I like the seven string idea but im not spending muney on one for a few songs til my 
makes it big so i tried this in six strings
THIS IS MY FIRST TAB BY EAR


| /  slide up
| \  slide down
| h  hammer-on
| p  pull-off
| ~  vibrato
| +  harmonic
| x  muted note
| () Hold note into slide/ hammer-on/ pull-off
| PM palm mute
| TP tremelo picked
| T  tap on fret with pick hand
| b  string bend
| r  release of bent string

Guitar 1: Corey
Guitar 2: Matt
-----------------------------------------------------------------------------

Guitar 1

E---------------------|------|-----------------------------------|-------|
B---------------------|------|12-12-12-12-12-12-11-11-11-11-11-11|-------|
G---------------------|12b-12|-----------------------------------|12b-12-|
D---------------------|------|-----------------------------------|-------|
A---------------------|------|-----------------------------------|-------|
E---------------------|------|-----------------------------------|-------|

Guitar 2---------------------|Sorry these are evenly timed

E---------------------|------|-----------------------------------|-------|
B---------------------|------|-----------------------------------|-------|
G---------------------|------|5-5--5--5--5--5--5-4--4--4--4--4--4|-------|
D---------------------|------|-----------------------------------|-------|
A-5----5----4----4-7-4|5--4--|-----------------------------------|5-4----|
E-3333333333222222-5-2|3--2--|-----------------------------------|3-2----|
Tap to rate this tab
 
# A B C D E F G H I J K L M N O P Q R S T U V W X Y Z