Song name
# A B C D E F G H I J K L M N O P Q R S T U V W X Y Z

Trivium - Throes Of Perdition tab

band:Trivium
song name:Throes Of Perdition
album:shogun
this song is played on a 7 string guitar (B,E,A,D,G,B,E) low to high

ive tab all the song except the solo so if anyone can 
help me figure it out that would be very greatful...if you 
have any questions or help with the solo 
my email adress is "connor_metallica@hotmail.co.uk"

PH: pinch harmonic
BU: bend up
BR: bend return
PM: palm mute
h:  hammer on
p:  pull off
/:  slide up
\:  slide down

guitar 1 (corey beaulieu)
guitar 2 (matt heafy)

intro
Guitar 1
    
E||-----------------------------------------------------|
B||-7--0--0--3--0--5--0--2--0--0--3--0--7-5-3-0-0-0-0---|
G||-----------------------------------------------------|
D||-----------------------------------------------------|
A||-----------------------------------------------------|
E||-----------------------------------------------------|
B||-----------------------------------------------------| X14

Guitar 2
    PM--------------------------------------------------|
E||-----------------------------------------------------|
B||-----------------------------------------------------|
G||-----------------------------------------------------|
D||-----------------------------------------------------|
A||-----------------------------------------------------|
E||-7--7--7--7--7--7--7--7--7--7--7--7--7-7-7-7-7-7-7---|
B||-----------------------------------------------------| X2

     PM-----------------------------------------------|  
E||---------------------------------------------------|
B||---------------------------------------------------|
G||---------------------------------------------------|
D||---------------------------------------------------|
A||---------------------------------------------------|
E||-5--5--5--5--5--5--5--5--5--5--5--5--5-5-5-5-5-5-5-|
B||---------------------------------------------------|

    PM--------------------------------------------------|
E||-----------------------------------------------------|
B||-----------------------------------------------------|
G||-----------------------------------------------------|
D||-----------------------------------------------------|
A||-----------------------------------------------------|
E||0--0--0--0--0--0--0--0--0-----0--0--0--0-0-0-0-0-0-0-|
B||-----------------------------------------------------|



     PM-------------------------------------------------|
E||-----------------------------------------------------|
B||-----------------------------------------------------|
G||-----------------------------------------------------|
D||-----------------------------------------------------|
A||-----------------------------------------------------|
E||3--3--3--3--3--3--3--3--3-----3--3--3--3-3-3-3-3-3-3-|
B||-----------------------------------------------------| X2

     PM-------------------------------------------------|
E||-----------------------------------------------------|
B||-----------------------------------------------------|
G||-----------------------------------------------------|
D||-----------------------------------------------------|
A||-----------------------------------------------------|
E||-----------------------------------------------------|
B||0--0--0--0--0--0--0--0--0-----0--0--0--0-0-0-0-0-0-0-| X2


    PM--------------------------------------------------|
E||-----------------------------------------------------|
B||-----------------------------------------------------|
G||-----------------------------------------------------|
D||-----------------------------------------------------|
A||-----------------------------------------------------|
E||-7--7--7--7--7--7--7--7--7--7--7--7--7-7-7-7-7-7-7---|
B||-----------------------------------------------------| X2


     PM-----------------------------------------------|  
E||---------------------------------------------------|
B||---------------------------------------------------|
G||---------------------------------------------------|
D||---------------------------------------------------|
A||---------------------------------------------------|
E||-5--5--5--5--5--5--5--5--5--5--5--5--5-5-5-5-5-5-5-|
B||---------------------------------------------------|


    PM--------------------------------------------------|
E||-----------------------------------------------------|
B||-----------------------------------------------------|
G||-----------------------------------------------------|
D||-----------------------------------------------------|
A||-----------------------------------------------------|
E||0--0--0--0--0--0--0--0--0-----0--0--0--0-0-0-0-0-0-0-|
B||-----------------------------------------------------|



     PM-------------------------------------------------|
E||-----------------------------------------------------|
B||-----------------------------------------------------|
G||-----------------------------------------------------|
D||-----------------------------------------------------|
A||-----------------------------------------------------|
E||3--3--3--3--3--3--3--3--3-----3--3--3--3-3-3-3-3-3-3-|
B||-----------------------------------------------------| X2


both guitars
E||---------------------------------------------------|
B||---------------------------------------------------|
G||---------------------------------------------------|
D||---------------------------------------------------|
A||-2--2--2--2----2--2--2--2--2--2----2--2------------|
E||-2--2--2--2----2--2--2--2--2--2----2--2------------|
B||-0--0--0--0----0--0--0--0--0--0----0--0------------|


verse 1
both guitars
E||---------------------------------------------------|
B||---------------------------------------------------|
G||---------------------------------------------------|
D||---------------------------------------------------|
A||---------------------------------------------------|
E||---------------------------------------------------|
B||-7--0--0--3--0--5--0--2--0--0--3--0--7--5--3--0----| X8

verse 2
both guitars
E||---------------------------------------------------|
B||---------------------------------------------------|
G||---------------------------------------------------|
D||---8-8--8-8--8-----------------4-4--4-4--4---------|
A||---9-9--9-9--9---8-8--8-8--8---5-5--5-5--5---------|
E||---9-9--9-9--9---9-9--9-9--9---5-5--5-5--5---------|
B||---7-7--7-7--7---6-6--6-6--6---3-3--3-3--3---------|

guitar 1

E||-------------|
B||-------------|
G||-------------|
D||------17~-16~|
A||-/16---------|
E||-------------|
B||-------------|

guitar 2

E||-------------|
B||-------------|
G||-------------|
D||--1----3-----|
A||--2----4-----|
E||--2----4-----|
B||--0----2-----|


both guitars
E||---------------------------------------------------|
B||---------------------------------------------------|
G||---------------------------------------------------|
D||---8-8--8-8--8-----------------4-4--4-4--4---------|
A||---9-9--9-9--9---8-8--8-8--8---5-5--5-5--5---------|
E||---9-9--9-9--9---9-9--9-9--9---5-5--5-5--5---------|
B||---7-7--7-7--7---6-6--6-6--6---3-3--3-3--3---------|


E||-------------|
B||-------------|
G||-------------|
D||--1----3-----|
A||--2----4-----|
E||--2----4-----|
B||--0----2-----|


verse 3
guitar 1

E||----------------------------------------------------------|
B||----------------------------------------------------------|
G||-----9BU(11BR9)-----9BU(11BR9)-----6-7-6~~----6-7--4-3-3~~|
D||--8--------------8---------------5----------5-------------|
A||----------------------------------------------------------|
E||----------------------------------------------------------|
B||----------------------------------------------------------|


verse 4
both guitars
E||----------------------------------------------|
B||----------------------------------------------|
G||----------------------------------------------|
D||----------------------------------------------|
A||----------------------------------------------|
E||--7p5------7p5-----7p5-----7p5------7p5--5h8~~|
B||------5p0p-----5p0-----5p0-----5p0------------|


E||-----------------------------------------|
B||-----------------------------------------|
G||-----------------------------------------|
D||-----------------------------------------|
A||-----------------------------------------|
E||-7p5-----7p5-----7p5-----7p5-----7p5-5h8-|
B||-----5p0-----5p0-----5p0-----5p0---------|

E||-----------------------------------------|
B||-----------------------------------------|
G||-----------------------------------------|
D||-----------------------------------------|
A||-7p5-----7p5-----7p5-----7p5-----7p5-5h8-|
E||-----------------------------------------|
B||-----5p0-----5p0-----5p0-----5p0---------|

E||------------------------------------------|
B||------------------------------------------|
G||------------------------------------------|
D||------------------------------------------|
A||-9p7-----9p7-----9p7-----9p7-----9p7-7p10-|
E||------------------------------------------|
B||-----5p0-----5p0-----5p0-----5p0----------|


verse 5
both gutars
   PM-------------------------------|
E||---------------------------------|
B||---------------------------------|
G||---------------------------------|
D||-----------------4-4-4-4-4-4-4-4-|
A||-----------------5-5-5-5-5-5-5-5-|
E||-7-7-7-7-7-7-7-7-5-5-5-5-5-5-5-5-|
B||-0-0-0-0-0-0-0-0-3-3-3-3-3-3-3-3-|

chorus
guitar 1

E||------------------------------------------------------------------------|
B||------------------------------------------------------------------------|
G||-11-11-11-11-9-9-9-9-11-11-11-11-9-9-9-9-4-4-4-6-6-6-6-6----------------|
D||---------------------------------------------------------5-5-5-7-7-7-7-7|
A||--9--9--9--9-7-7-7-7--9--9--9--9-7-7-7-7-2-2-2-4-4-4-4-4----------------|
E||---------------------------------------------------------3-3-3-5-5-5-5-5|
B||------------------------------------------------------------------------|

E||--------------------------------|
B||--------------------------------|
G||-4-4-4-4-6-6-6-6-7-7-7-7-9-9-9-9|
D||--------------------------------|
A||-2-2-2-2-4-4-4-4-5-5-5-5-7-7-7-7|
E||--------------------------------|
B||--------------------------------|


guitar 2 (chorus rhythm)
E||------------------------------------------------------------------------|
B||------------------------------------------------------------------------|
G||---x16times---x8times---x3times---x5times---x13times--x3times-----------|
D||--8----------6---------1---------3---------4---------6------------------|
A||--9----------7---------2---------4---------5---------7------------------|
E||--9----------7---------2---------4---------5---------7------------------|
B||--7----------5---------0---------2---------3---------5------------------|

both guitars
verse 6

E||---------------------------------------------|
B||---------------------------------------------|
G||---------------------------------------------|
D||---------------------------------------------|
A||---------------------------------------------|
E||-7p5-----7p5-----5h8p5-7p5-----7p5-----5h8p5-|
B||-----5p0-----5p0-----------5p0-----5p0-------|



verse 7
both guitars (play 4 times)
         PM----   PM        PM---   PM       PM---   PM---   PM---
E||------------------------------------------------------------------------|
B||------------------------------------------------------------------------|
G||------------------------------------------------------------------------|
D||----------------------------------------8-------8-----------------------|
A||----9--------9----9\7--5-------5---5/7--9-------9-------4-------4/7-5-5-|
E||---10-------10---10\9--7-------7---7/9--9-------9-------5-------5/9-7-7-|
B||------0-0-0----0---------0-0-0---0------7-7-7-7-7-7-7-7---0-0-0---------|


verse 8
both guitars (PLAY 4 TIMES)


     PM------------------------  PM  PM     PM------       PM  PM
E||-----------------------------|---------|--------------|---------|
B||-----------------------------|---------|--------------|---------|
G||-----------------------------|---------|--------------|---------|
D||-----------------------------|---4---4-|--------------|---4---4-|
A||-----------------------------|---5---5-|--------------|---5---5-|
E||--7-7777-7-7-7777-7-7-7777-7-|---5---5-|-7-7777-7--5PH|---5---5-|
B||--0-0000-0-0-0000-0-0-0000-0-|-0-3-0-3-|-0-0000-0-----|-0-3-0-3-|
                                play 1st    play 2nd      play 3rd 
                                 time        time         time

E||-------------------------|
B||-------------------------|
G||-------------------------|
D||-5-4---4-----------------|
A||-----7---7-5-7-5-4-5-4---|
E||-----------------------7-|
B||-------------------------|
   play 4th time


outro 
both guitars
E||---------------------------|
B||---------------------------|
G||---------------------------|
D||---------------------------|
A||---9~~---5~~---9~~-----5~~~| hold last chord
E||--10~~---7~~---9~~-----7~~~| till end
B||---------------7~~---------|
song in order:
intro
verse 1
verse 2
verse 3 X2
verse 4
verse 2
verse 3 X2
verse 4
verse 5
chorus
verse 6
chorus
verse 6
verse 7
verse 8
solo 1/ guitar 1(???)
solo 2/ guitar 2(???)
verse 8
chorus X2
verse 6
chorus
verse 6
chorus
verse 6
verse 1
outro

thats the entire song
enjoy!!!!! :D
Tap to rate this tab
# A B C D E F G H I J K L M N O P Q R S T U V W X Y Z