Song name
# A B C D E F G H I J K L M N O P Q R S T U V W X Y Z

Trivium - Upon The Shores tab

Band: Trivium
Album: Shogun
Song: Upon The Shores
Tuning: Standard (E,A,D,G,B,E LOW TO HIGH)

vibrato:        ~
hammer on:      h
pull off:       p
pinch harmonic: PH
tremelo pick  : TR
slide up:       /
slide down:     \
bend up:        BU(?)
bend return:    BR(?)

I got bored of people making this tab and saying they were gonna
update with the solo so i decide to try it out for myself.
ive figure out both of the solos and i hope you enjoy.....
this will be going on my shogun album by the way (due in march)

PLEASE RATE :)

intro
E|-------------------------------------------------------------------------|
B|-------------------------------------------------------------------------|
G|-------------------------------------------------------------------------|
D|-0h2------0h2------0h2----2h4------4p2---5-4-2--0h2------0h2------0h2----|
A|-0h2------0h2------0h2----3~~-3333-3~~-3-3-3-3--0h2------0h2------0h2----|
E|-----0000-----0000-----00---------------------------0000-----0000-----00-|

E|------------------------|
B|------------------------|
G|------------------------|
D|-2h4------4p2-----------|
A|-3~~-3333-3~~-------5PH-|
E|--------------3-2-0-----|


verse
E|-------------------------------------------------------------------------|
B|-------------------------------------------------------------------------|
G|-------------------------------------------------------------------------|
D|-----------------------------------0h2--------545-9-7-----------------0h2|
A|-2~-----5-----------2--------------0h2--------323-7-5-----------------0h2|
E|-0~-3-2---2-3-2-5-3-0-000000000000-----000000---------00-000000000000----|

E|---------------------------|
B|---------------------------|
G|---------------------------|
D|---------------------------|
A|-----------5-----------2---|
E|000000-3-2---2-3-2-5-3-0---|

E|------------------------------------|
B|------------------------------------|
G|------------------------------------|
D|--------------0h2--------545-9-7----|
A|--------------0h2--------323-7-5----|
E|-000000000000-----000000------------|


pre chorus
E|-----------------------------------------------------------------------|
B|-----------------------------------------------------------------------|
G|--------------------------------------------------------------4--------|
D|-----4---2------4---2------4---2h4------5---4------5---4--4-5---5-4-5--|
A|-2-2---2----2-2---2----2-2---2------3-3---3----3-3---3-----------------|
E|-----------------------------------------------------------------------|

E|-----------------------------------------------------------------------|
B|-----------------------------------------------------------------------|
G|------------------------------------------------------------4-5-4---4--|
D|-----4---2------4---2------4---2h4------5---4------5---7--7-------7----|
A|-2-2---2----2-2---2----2-2---2------3-3---3----3-3---3-----------------|
E|-----------------------------------------------------------------------|

E|---------|
B|---------|
G|---------|
D|---------|
A|-0-2-----|
E|-----3-2-|
                     

chorus
guitar 1
E|------------------------------------------------------------------------|
B|-12-10------12-10----10-12--15-17-13~-1313-13h5p13-12-13~-12-10---------|
G|-------12~--------12--------------------------------------------12------|
D|------------------------------------------------------------------------|
A|------------------------------------------------------------------------|
E|------------------------------------------------------------------------|

E|-------------------------|
B|-------------------------|
G|-------------------------|
D|-------------------------|
A|-5-----5-----5-----5-----|
E|---3-2---3-2---3-2---3-2-|

guitar 2
E|------------------------------------|
B|------------------------------------|
G|------------------------------------|
D|-2~------------5~---7~--------------|
A|-2~------------3~---7~--------------|
E|-0~------------3~---5~--------------|

E|--------------------|-------------------------|
B|--------------------|-------------------------|
G|--------------------|-------------------------|
D|-2~------------5~---|-------------------------|
A|-2~------------3~---|-5-----5-----5-----5-----|
E|-0~------------3~---|---3-2---3-2---3-2---3-2-|


pre solo
E|-----------------------------------------------------------|
B|-----------------------------------------------------------|
G|-------------------------0---------------------------------|
D|-----------------------4----------------------------0------|
A|---4----4----4----4-----------4----4----4----4-------------|
E|-0-2--0-2--0-2--0-2--2------0-2--0-2--0-2--0-2--2-3--------|

E|-------------------------------------------------------------------------|
B|-------------------------------------------------------------------------|
G|-------------------------0-----------------------------------------------|
D|-----------------------4-------------------------------------------------|
A|---4----4----4----4-----------4----4----4----4--5-7-------4----4----4----|
E|-0-2--0-2--0-2--0-2--2------0-2--0-2--0-2--0-2--3-5-----0-2--0-2--0-2--0-|

E|-----------|
B|-----------|
G|------0----|
D|----4------|
A|4----------|
E|2--2-------|

E|----------------------------------|
B|----------------------------------|
G|----------------------------------|
D|---------------------------0------|
A|-----4----4----4----4-------------|
E|---0-2--0-2--0-2--0-2--2-3--------|

solo 1 CKB
E|-----------------------------------------------------------------|
B|--------------------------------------------------------17-16-13-|
G|-----------------------------------------------16-15-12----------|
D|--------------------------------------14-13-10-------------------|
A|-----------------------------15-14-12----------------------------|
E|--7~~~--7-9-10-14~--15-14-12-------------------------------------|

      TR--------------
E|-------------------------------------------------------|
B|---12---12-14-15-/19----20-19-17-19-17----17-----------|
G|--------------------------------------20----20-17-16~~-|
D|-------------------------------------------------------|
A|-------------------------------------------------------|
E|-------------------------------------------------------|

E|--20-19-17-20-19-17-------------------------------------|
B|--------------------20-19-17-20-19-17-------------------|
G|--------------------------------------19-17-16-19-17-16-|
D|--------------------------------------------------------|
A|--------------------------------------------------------|
E|--------------------------------------------------------|

E|-----------------------------------------------------------|
B|-----------------------------------------------------------|
G|-----------------------------------------------------------|
D|-19-17-16-19-17-16-----------------------------------------|
A|-------------------19-17-15-19-17-15-----------------------|
E|---------------------------------------15--14--12~--12\11~-|

each of these notes are
played with an open E (0) between them
E|-5-3-7-5-8-7-12-11-19-17-20-19-22-20-|-22BU(24)~-|
B|-------------------------------------|-----------|
G|-------------------------------------|-----------|
D|-------------------------------------|-----------|
A|-------------------------------------|-----------|
E|-------------------------------------|-----------|


solo 2 MKH 
(this solo is done with a wah wah pedal)
E|-----------------|-first-ending----|-second-ending-----------|
B|-7-0-0-0-7-0-0-0-|-7-0-8-0-7-0-0-0-|-8-7-5-------------------|
G|-----------------|-----------------|-------7-5-4-------------|
D|-----------------|-----------------|-------------7-5-4-------|
A|-----------------|-----------------|-------------------7-5-4-|
E|-----------------|-----------------|-------------------------|

E|-----------------------|----------------------------------------|
B|-----------------------|----------------------------------------|
G|--4-BU(5)---(5)-(5)~~~-|-4h5p4-2h4p2-0h2p0----------------------|
D|-----------------------|-------------------4h5p4-2h4p2----------|
A|-----------------------|-------------------------------4h5p4-2~-|
E|-----------------------|----------------------------------------|

     TR------------------------
E|------------------------------|-------------------------------------|
B|------------------------------|-------------------------------------|
G|---4--6--7--9--11--12--14--16-|-17-16-14----14-16-17-16-14----14-16-|
D|------------------------------|----------16----------------16-------|
A|------------------------------|-------------------------------------|
E|------------------------------|-------------------------------------|

                           TR-----------------------------------
E|-------------16-17-19~~-22-24-21-22-19-21-17-19-15-17-14-15-12----------|
B|----16-17-19---------------------------------------------------11BU(12)-|
G|-17---------------------------------------------------------------------|
D|------------------------------------------------------------------------|
A|------------------------------------------------------------------------|
E|------------------------------------------------------------------------|

E|-------------------12h14p12h14p12h14-14h15p14h15p14h15-|
B|-12h14p12h14p12h14-------------------------------------|
G|-------------------------------------------------------|
D|-------------------------------------------------------|
A|-------------------------------------------------------|
E|-------------------------------------------------------|

E|-15h17p15h17p15h17-17h19p17h19p17h19-|
B|-------------------------------------|
G|-------------------------------------|
D|-------------------------------------|
A|-------------------------------------|
E|-------------------------------------|

     TR--------------------
E|----------------------------------------------------|
B|--19-15-17-14-15-12-14-10-11BU(12)BR(11)---BU(12)~~-|
G|----------------------------------------------------|
D|----------------------------------------------------|
A|----------------------------------------------------|
E|----------------------------------------------------|

song in order:
intro/outro x 2
verse x 1
pre chorus x 2
chorus x 2
intro x 1
verse x 1
pre chorus x 2
chorus x 4
pre solo x 3
Solo 1 CKB
pre solo x 2
Solo 2 MKH (wah wah pedal)
pre chorus x 2
chorus x 4
intro/outro x 1

thats it
enjoy :)
Tap to rate this tab
# A B C D E F G H I J K L M N O P Q R S T U V W X Y Z