Song name
# A B C D E F G H I J K L M N O P Q R S T U V W X Y Z

Trivium - My Dog My Truck My Woman tab

Band: Trivium/Dirty Dixies
Song: My Dog My Truck My Woman

this is
Paolo Gregoletto's, 
Corey Beaulieu's &
Travis Smith's
side project that was made during the recording of 'Shogun'
in nashville. it was at first meant to be a joke but then 
it turned out pretty well for them so they decided to add
it to there shogun 2disc edition on there 'making of' dvd
ive also added the chords and scales to this tab :)

slide up:  /
bend up:   BU
pull off:  p
vibrato:   ~

intro
   E major Decending   E5              A5
E||-----------------|----------------------------------|
B||-----------------|----------------------------------|
G||-----------------|----------------------------------|
D||--2-0------------|------------------2--2-2-2-2-2-2--|
A||------4-2--------|--2--2-2-2-2-2-2--0--0-0-0-0-0-0--|
E||----------5-4-2--|--0--0-0-0-0-0-0------------------|

Verse Riff
     E5              A5               E5              A5   
E||-------------------------------------------------------------------|
B||-------------------------------------------------------------------|
G||-------------------------------------------------------------------|
D||------------------2--2-2-2-2-2-2-------------------2--2-2-2-2-2-2--|
A||--2--2-2-2-2-2-2--0--0-0-0-0-0-0---2--2-2-2-2-2-2--0--0-0-0-0-0-0--|
E||--0--0-0-0-0-0-0-------------------0--0-0-0-0-0-0------------------|

     E5              A5              B Major
E||-------------------------------------------------------------------|
B||-------------------------------------------------------------------|
G||-------------------------------------------------------------------|
D||------------------2--2-2-2-2-2-2--4-4-4-4-4-4-4-4-4-4-4-4-4-4-4-4--|
A||--2--2-2-2-2-2-2--0--0-0-0-0-0-0--2-2-2-2-2-2-2-2-2-2-2-2-2-2-2-2--|
E||--0--0-0-0-0-0-0---------------------------------------------------|

Pre Chorus
     A5 E5          A5  E5           A5    E5
E||-------------11---------------8--------------------------55555---|
B||--------3/12-------------3/10------------------------3/7---------|
G||-----------------------------------------------------------------|
D||--2--------------2----------------2------------------------------|
A||--0--2-----------0---2------------0--2--2-2-2-2-2-2--------------|
E||-----0---------------0---------------0--0-0-0-0-0-0--------------|

Chorus
     D Major                          A Major                 
E||--2-2-2-2-2-2-2-2-2-2-2-2-2-2-2-2-----------------------------------|
B||--3-3-3-3-3-3-3-3-3-3-3-3-3-3-3-3--2-2-2-2-2-2-2-2-2-2-2-2-2-2-2-2--|
G||--2-2-2-2-2-2-2-2-2-2-2-2-2-2-2-2--2-2-2-2-2-2-2-2-2-2-2-2-2-2-2-2--|
D||-----------------------------------2-2-2-2-2-2-2-2-2-2-2-2-2-2-2-2--|
A||-----------------------------------0-0-0-0-0-0-0-0-0-0-0-0-0-0-0-0--|
E||--------------------------------------------------------------------|

Solo
this solo is based around the
scale of G Major Descending
E||-15p14p12----------14-14BU(15)(14)12----15p14p12----------------------|
B||----------15p14p12-------------------14----------15p14p12--9-9-7-5~~--|
G||----------------------------------------------------------------------|
D||----------------------------------------------------------------------|
A||----------------------------------------------------------------------|
E||----------------------------------------------------------------------|

E||-----------------------------------------------------------------------|
B||------------------------------------------------------------12~-121212-|
G||----9----9----10BU(11)(10)----9--------------------9~-11-13------------|
D||-11---11---11--------------11---11--11-10-9~-11-13---------------------|
A||-----------------------------------------------------------------------|
E||-----------------------------------------------------------------------|

E||-----------14BU(15)(14)(15)----14---------------|
B||--14-14-15------------------15----15-14-12-14~--|
G||------------------------------------------------|
D||------------------------------------------------|
A||------------------------------------------------|
E||------------------------------------------------|

On second chorus the 'D major' chord 
changes to a 'D major suspended fourth'
E||--2-2-2-2-2-2-2-2-3-3-3-3-3-3-3-3--|
B||--3-3-3-3-3-3-3-3-3-3-3-3-3-3-3-3--|
G||--2-2-2-2-2-2-2-2-2-2-2-2-2-2-2-2--|
D||-----------------------------------|
A||-----------------------------------|
E||-----------------------------------|

Pre Chorus again
then
E||------55555--|
B||--3/7--------|
G||-------------|
D||-------------|
A||-------------|
E||-------------|
Tap to rate this tab
 
# A B C D E F G H I J K L M N O P Q R S T U V W X Y Z