Song name
# A B C D E F G H I J K L M N O P Q R S T U V W X Y Z

Trivium - Iron Maiden tab

Band:  Trivium
Song:  Iron Maiden
Album: Shogun 2disc edition (bonus track)
       also on the Maiden Heaven Album

Guitar 1: Corey Beaulieu
Guitar 2: Matthew Heafy

h:   hammer on
p:   pull off
PM:  palm mute
WBH: raise pitch with whammy bar
WBL: lower pitch with whammy bar
\:   slide down
BU:  bend up


Intro
guitar 1
E||-------------------|---------------||
B||o------------------|-5--1---------o||
G||--2----2-0h2p0-----|-------2-4-0---||
D||---------------2---|---------------||
A||o------------------|--------------o||
E||-------------------|---------------||

guitar 2
E||-------------------|---------------||
B||o-1----1-0h1p0-----|--------------o||
G||---------------2---|-0-------------||
D||-------------------|-----4--2---0--||
A||o------------------|--------------o||
E||-------------------|---------------||


Verse
    PM-   PM-   PM-   PM-   PM-       PM-   PM-   PM-   PM-   PM-
E||---------------------------------|---------------------------------|
B||---------------------------------|---------------------------------|
G||---------------------------------|---------------------------------|
D||-----7-----7-----7-----7-----7~~-|-----5-----5-----5-----5-----5~~-|
A||-----7-----7-----7-----7-----7~~-|-----5-----5-----5-----5-----5~~-|
E||-5-5-5-5-5-5-5-5-5-5-5-5-5-5-5~~-|-3-3-3-3-3-3-3-3-3-3-3-3-3-3-3~~-|

one of the other verses goes like this
    PM-   PM-   PM-   PM-   PM-       PM-   PM-   PM-
E||---------------------------------|---------------------------------|
B||---------------------------------|---------------------------------|
G||---------------------------------|---------------------------------|
D||-----7-----7-----7-----7-----7~~-|-----5-----5-----5-----5-----5~~-|
A||-----7-----7-----7-----7-----7~~-|-----5-----5-----5-----5-----5~~-|
E||-5-5-5-5-5-5-5-5-5-5-5-5-5-5-5~~-|-3-3-3-3-3-3-3-3-3-----3-----3~~-|


chorus
guitar 1
E||----------------------|-1st-&-3rd-ending--|-2nd-ending-----------------|
B||----------------------|-5~~~~~~-10~~~~~~~-|-10-------12-------13-------|
G||-5---5---------7---7--|-7BU(9)~-12BU(14)~-|-12BU(14)-14BU(16)-15BU(17)-|
D||-5---5--5---5--7---7--|-------------------|----------------------------|
A||-3-3-3--5---5--5-5-5--|-------------------|----------------------------|
E||--------3-3-3---------|-------------------|----------------------------|

guitar 2
E||-----------------------------|
B||-----------------------------|
G||-5---5---------7---7---------|
D||-5---5--5---5--7---7--7---7--|
A||-3-3-3--5---5--5-5-5--7---7--|
E||--------3-3-3---------5-5-5--|


pre harmony riff
guitar 1
E||-------------|-------------|
B||-------------|-------------|
G||-------------|-------0-2-4-|
D||-------0-2-3-|-0-2-3-------|
A||-0-2-3-------|-------------|
E||-------------|-------------|


harmony
guitar 1
E||-10BU(12)-10--8--7h8p7-5-3-|-1--3--5-7-8-10-|
B||---------------------------|----------------|
G||---------------------------|----------------|
D||---------------------------|----------------|
A||---------------------------|----------------|
E||---------------------------|----------------|

guitar 2
E||--------------------------------|-------------------|
B||-18BU(20)-18--17-15h17p15-13-12-|-10-12-13-15-17-18-|
G||--------------------------------|-------------------|
D||--------------------------------|-------------------|
A||--------------------------------|-------------------|
E||--------------------------------|-------------------|


harmony outro
both guitars
E||--------------------|
B||--------------------|
G||--------------------|
D||---------7~~--5~~~~-|
A||-7-7-7-7-5~~--3~~~~-|
E||--------------------|

chorus solo
guitar 1
E||----------17---17-19-20-19-17-20-17----------17----------|
B||-20BU(22)---------------------------20-17-20----20BU(22)-|
G||---------------------------------------------------------|
D||---------------------------------------------------------|
A||---------------------------------------------------------|
E||---------------------------------------------------------|

E||-----------------------------------------|
B||-----------------------------------17----|
G||--------------------------16-17-19-------|
D||--------------14-15-17-19----------------|
A||-----14-15-17----------------------------|
E||--17-------------------------------------|


outro
guitar 1
E||--17\--17\--17\--17\---17WBH~~~~~~WBL\-------|--17\---|
B||---------------------------------------------|--------|
G||---------------------------------------------|--------|
D||---------------------------------------------|--------|
A||---------------------------------------------|--------|
E||---------------------------------------------|--------|

guitar 2
E||---------------------------------------------|--------|
B||---------------------------------------------|--------|
G||---------------------------------------------|--------|
D||--7\---7\---7\---7\---7777777777777777777777-|--7\----|
A||--7\---7\---7\---7\---7777777777777777777777-|--7\----|
E||--5\---5\---5\---5\---5555555555555555555555-|--5\----|

song in order:
intro
verse
intro
chorus
intro
verse
chorus
pre harmony
harmony
harmony outro
intro
chorus & chorus solo
outro
Tap to rate this tab
 
# A B C D E F G H I J K L M N O P Q R S T U V W X Y Z