Song name
# A B C D E F G H I J K L M N O P Q R S T U V W X Y Z

Trivium - Rising tab

Band:  Trivium
Song:  Rising
Album: The Crusade

i think this song is played on a 6 string in drop D but ive tabbed
it in standard tuning (E,A,D,G,B,E) LOW TO HIGH
this song is in the key of D minor (D,E,F,G,A,B',C)

fyi this song has been taken from a total guitar magazine i own
so it is pretty much 99.9% correct
comments and rates are greatly appreciated

ive done the intro and outro in standard and drop D tuning seen as how
they're the only parts on the low E string. use which ever one you find
easier :)

Legend:
vibrato:            ~~~
palm mute:          PM---
bend up:            BU(?)
bend return:        (?)
slide up:           /
slide down:         \
re pick bend:       RP
hammer on:          h
pull off:           p
muted note:         x
tapped note:        T
artifical harmonic: AH


intro (standard)
    PM---------------------       PM    PM    PM
E||-----------------------------|----5-----1-----8--|
B||-----------------------------|----6-----3-----8--|
G||-----------------------------|----7-----2-----9--|
D||-----------------------------|-0-----0-----0-----|
A||-5-3---3---------------------|-------------------|
E||-----4---4-3-1-3-4-3-1-3-1~~-|-------------------|


intro (drop D)
    PM---------------------
E||-----------------------------|
B||-----------------------------|
G||-----------------------------|
D||-----------------------------|
A||-5-3---3---------------------|
D||-----6---6-5-3-5-6-5-3-5-3~~-|


intro (standard Con't)
    PM---                   PM    PM    PM      PM---
E||-----------------------|----5-----1-----8--|-----------------------|
B||-----------------------|----6-----3-----8--|-----------------------|
G||----------10~~----12~~-|----7-----2-----9--|----------10~~----12~~-|
D||-0-0-0-/9------/9------|-0-----0-----0-----|-0-0-0-/9------/9------|
A||-----------------------|-------------------|-----------------------|
E||-----------------------|-------------------|-----------------------|


intro solo
E||-15BU(17)-15BU(17)~~-15BU(17)(15)---12BU(13)(12)----15-13~~~~-|
B||-------------------------------------------------13-----------|
G||--------------------------------------------------------------|
D||--------------------------------------------------------------|
A||--------------------------------------------------------------|
E||--------------------------------------------------------------|
                                                  RP
E||-------13-15BU(17)-(15)-|----------------------------------------|
B||-13-15------------------|------------------13--------------------|
G||------------------------|-------10h12BU(14)---(14)(12)p10--------|
D||------------------------|-10h12---------------------------10-12\-|
A||------------------------|----------------------------------------|
E||------------------------|----------------------------------------|


verse
           PM-      PM-------           PM-      PM-------
E||------------------------------|---------------------------|
B||o----------------------------o|---------------------------|
G||---7--7-----5--7-----------7--|-7--7-----5--7-----------7-|
D||---7--7-----5--7-----------7--|-7--7-----5--7-----------7-|
A||o--5--5-5-5------5-5-5-5-5-5-o|-5--5-5-5------5-5-5-5-5-5-|
E||------------------------------|---------------------------|

         PM-------    PM---------                      PM-------
E||----------------|-1st-ending------|-2nd-ending--------------------|
B||----------------|-----------------|-------------------------------|
G||-7--7-----------|--7-5---5--------|-7-5---5-----------------------|
D||-7--7-----------|------6---6-5----|-----6---6-5-----5-6-5---5-----|
A||-5--5-5-5-5-5-5-|--------------8~-|-------------8~~-------8---8~~-|
E||----------------|-----------------|-------------------------------|


chorus
E||-----------------|----------------|------------------|-1st-ending---|
B||-----------------|----------------|------------------|--------------|
G||-7-7-7-7-7-7-7-7-|-7-7-7/12-12-12-|-10\9-9-9-9-9-9\7-|-7-7-7-7-7-5~-|
D||-----------------|----------------|------------------|--------------|
A||-5-5-5-5-5-5-5-5-|-5-5-5/10-10-10-|--8\7-7-7-7-7-7\5-|-5-5-5-5-5-3~-|
E||-----------------|----------------|------------------|--------------|

E||-2nd-ending----|---------|
B||---------------|---------|
G||-7-7-7-7-7-7-5-|-5-5-5-5-|
D||---------------|---------|
A||-5-5-5-5-5-5-3-|-3-3-3-3-|
E||---------------|---------|


solo 1                                                  RP
E||-------------|--1st-ending---------|-13-15BU(17)~~~-(17)(15)-|
B||------13~~~~-|--12BU(13)(12)-10~~~-|-------------------------|
G||-9h10--------|--12BU(13)(12)-10~~~-|-------------------------|
D||-------------|---------------------|-2nd-ending--------------|
A||-------------|---------------------|-------------------------|
E||-------------|---------------------|-------------------------|

E||-13-12h13p12----|-12-13-15-17-19-20-21-22\-|
B||-------------13-|--------------------------|
G||----------------|--------------------------|
D||----------------|--------------------------|
A||----------------|--------------------------|
E||----------------|--------------------------|


Breakdown
                               PM      PM     PM-----
E||-----------|-------------------|--------------------|
B||-3~~~-let--|o-3--3----3--3-----|-5-----6-----------o|
G||-2~~~-it---|--2--2----2--2-----|---------5----------|
D||-0~~~-ring-|--0--3p0--0--0--0--|----0------0-0-0-0--|
A||-0~~~------|o------------------|-------------------o|
E||-----------|-------------------|--------------------|

                   PM      PM     PM-----
E||-------------------|--------------------|
B||o-3--3----3--3-----|-5-----6-----------o|
G||--2--2----2--2-----|---------5----------|
D||--0--3p0--0--0--0--|----0------0-0-0-0--|
A||o------------------|-------------------o|
E||-------------------|--------------------|


solo 2
E||-15BU(17)~~~~~~(16)(17)~~~~-|
B||----------------------------|
G||----------------------------|
D||----------------------------|
A||----------------------------|
E||----------------------------|

E||-10-13p10----10---------------------------------------------------|
B||----------13----13p10h13p10----10---------------------------------|
G||----------------------------12----12p10h13p10h12p10---------------|
D||----------------------------------------------------10-10-10-12~~-|
A||------------------------------------------------------------------|
E||------------------------------------------------------------------|

E||----------------10-10---------------------------|
B||-10---10---10---10-10---10---10---x--10--10--x--|
G||-10---10---10---10-10---10---10---x--10--10--x--|
D||------------------------------------------------|
A||------------------------------------------------|
E||------------------------------------------------|

E||------------------------------------------------------------------------|
B||------------------------------------------------------------------------|
G||-10----------------------------------------------------10-12-10-12-10~~-|
D||----12-10----10----10----10-------------10-10-12-10-12------------------|
A||----------12----12----12----12-11-10-11---------------------------------|
E||------------------------------------------------------------------------|

E||----------------------------||-----------13----------13--|
B||o--------------------------o||o-13BU(15)----13BU(15)----o|
G||--12BU(14)(12)(14)(12)-10~--||---------------------------|
D||----------------------------||---------------------------|
A||o--------------------------o||o--------------------------|
E||----------------------------||---------------------------|

E||----10h13p10----10h13p10----10h13p10-------------|
B||-13----------13----------13-------------10h13p10-|
G||-------------------------------------12----------|
D||-------------------------------------------------|
A||-------------------------------------------------|
E||-------------------------------------------------|

E||-13h15p13p10--------------------|
B||-------------13p10h13p10-----13-|
G||-------------------------12-----|
D||--------------------------------|
A||--------------------------------|
E||--------------------------------|

              RP             RP             RP             RP
E||-10--------10---13--------13---15--------15---17--------17--|
B||-13BU(15)-(15)--16BU(18)-(18)--18BU(20)-(20)--20BU(22)-(22)-|
G||------------------------------------------------------------|
D||------------------------------------------------------------|
A||------------------------------------------------------------|
E||------------------------------------------------------------|

E||-20BU(22)(20)--20BU(22)~~~~-|
B||----------------------------|
G||----------------------------|
D||----------------------------|
A||----------------------------|
E||----------------------------|


outro solo
E||----------------------------------------|-10-10-10-------12BU(13)~~~-|
B||-------------13~~~----11p10h11----------|----------------------------|
G||----------10--------------------9h10p9--|----------10-12-------------|
D||-10h12h14-------------------------------|----------------------------|
A||----------------------------------------|----------------------------|
E||----------------------------------------|----------------------------|

E||-------10-13p10-------15p10----------10h13p10-------------------------|
B||-10-13----------13p10-------13p10h13----------13p10-13p10-13p10-13p10-|
G||----------------------------------------------------------------------|
D||----------------------------------------------------------------------|
A||----------------------------------------------------------------------|
E||----------------------------------------------------------------------|

E||-------------||-----------10----------------10----------------10-------|
B||-------------||o-------------13p10-------------13p10-------------13p10-|
G||-12-10-12~~~-||--12BU(14)----------12BU(14)----------12BU(14)----------|
D||-------------||--------------------------------------------------------|
A||-------------||o-------------------------------------------------------|
E||-------------||--------------------------------------------------------|

E||-1st-ending--|-2nd-ending--------||-15BU(17)~~~~~~~---10-|
B||-13BU(17)~~~-|-15BU(18)~~~---13-o||----------------------|
G||-------------|-------------------||----------------------|
D||-------------|-------------------||----------------------|
A||-------------|------------------o||----------------------|
E||-------------|-------------------||----------------------|

E||-13p10----10-13p10----10-13p10----10-15p10----10-|
B||-------13----------13----------13----------13----|
G||-------------------------------------------------|
D||-------------------------------------------------|
A||-------------------------------------------------|
E||-------------------------------------------------|

     T        T     T        T        T     T  
E||-15p13p10-13p10-13p10h13-15p13p10-13p10-13p10h13h15p13p10----10-------|
B||----------------------------------------------------------13----13p10-|
G||----------------------------------------------------------------------|
D||----------------------------------------------------------------------|
A||----------------------------------------------------------------------|
E||----------------------------------------------------------------------|

E||------------|
B||----13~~~~~-|
G||-12---------|
D||------------|
A||------------|
E||------------|


outro (standard)
    PM--------------------- AH
E||----------------------------|--------|
B||----------------------------|--------|
G||----------------------------|-5--7\--|
D||----------------------------|-5--7\--|
A||-3-5-3---3------------------|-3--5\--|
E||-------4---4-3-1-3-4-3-1-3--|--------|


outro (drop D)
    PM--------------------- AH
E||----------------------------|
B||----------------------------|
G||----------------------------|
D||----------------------------|
A||-3-5-3---3------------------|
D||-------6---6-5-3-5-6-5-3-5--|

thats all, please rate :)
Tap to rate this tab
# A B C D E F G H I J K L M N O P Q R S T U V W X Y Z