Trivium - Throes Of Perdition tab

TRIVIUM
THROES OF PERDITION SOLO
SHOGUN
5:54

Tabbed by: 2guitargod4 (sam)
Email: sam.rocks.123@hotmail.com

Tuning: EADGBe (Standard)
*This song is played on a 7-string guitar but that has no relavance to the solo as only 
E-A-D-G-B-e strings are used*

Found a few mistakes and harmonies missing in the other versions, so thought i'd 
it. sweet solo and not that hard to nail with a bita practice , so enjoy.


guitar 1
----------------------------------------------------------------------------|
----------------------------------------------------------------------------|
-16\\------------11--11h12-9------------------------------------------------|
------7/9--11-12-------------12-11-11h-12p11--------11h-12p11-----11b12r11~-|
---------------------------------------------14-12------------12------------|
----------------------------------------------------------------------------|

guitar 2                                                          PH
----------------------------------------------------------------------------|
-15\\-10/12-14-15-/19--19h20-17---------------------------------------------|
--------------------------------19-18-18h19p18-------18h-19p18----18b19r18~-|
-----------------------------------------------21-19-----------19-----------|
----------------------------------------------------------------------------|
----------------------------------------------------------------------------|

----------------------------------------------------------------------------|
-t12p7p3h7-t15p7-t14p7-t12p7p3h7-t15p7-t14p7-t15p12p7h12-t19p12-t17p12------|
----------------------------------------------------------------------------|
----------------------------------------------------------------------------|
----------------------------------------------------------------------------|
----------------------------------------------------------------------------|

-------------------------------------------------------171514------191715---|
-t19p15p10h15-t22p15-t20p15-t19p15p10h15-t22p15-t20p15-------171514---------|
----------------------------------------------------------------------------|
----------------------------------------------------------------------------|
----------------------------------------------------------------------------|
----------------------------------------------------------------------------|

--------------------|
-191715-------------|
--------------------| sorry, out of room
--------------------|
--------------------|
--------------------|

-/19-17-19-21-19-21-21b22~-15-14-12-----------------------------------------|
-----------------------------------15-14-12---------------------------------|
-------------------------------------------14-12-11-------------------------|
---------------------------------------------------14-12-11-----------------|
-----------------------------------------------------------14-12-10---------|
-------------------------------------------------------------------14-12-10-|

             *guitar 2 plays top
---------------------------------------------------|
---------------------------------------------------|
-----------------------9/11\9--7-9--11-------------|
------------*11/12----11/12\11-9-11-12-------------|
------12~------------------------------------------|
-9/10--------9/10----------------------------------|

 Guitar 1
-10-7-------------------------------------------------|
------8-7-8-7-----------------------------------------|
--------------9-7-9-7---------------------------------|
----------------------9-7------------------------7/9~-|
--------------------------9-7-9-7---------------------|
----------------------------------10-7-10-7-9/10------|

 Guitar 2 harmony
-14-10-------------------------------------------------------------------|
-------12-10-12-10-------------------------------------------------------|
-------------------12-11-12-11-------------------------------------------|
-------------------------------14-12-------------------------------------|
-------------------------------------14-12-14-12-------------------16/17-|
-------------------------------------------------15-12-15-12-14h15-------|

----------10----------------10h12b13r12----------10--------------10h12b13r12-|
-10-11-12----12-11-10-11-12-------------10-11-12----12-11-10-11-12-----------|
-----------------------------------------------------------------------------|
-----------------------------------------------------------------------------|
-----------------------------------------------------------------------------|
-----------------------------------------------------------------------------|

----------14----------------14----------------14----------------14h17p14----|
-15-17-18----18-17-15-17-18----18-17-15-17-18----18-17-15-17-18-------------|
----------------------------------------------------------------------------|
----------------------------------------------------------------------------|
----------------------------------------------------------------------------|
----------------------------------------------------------------------------|

-17b19~----------|
-----------------|
-----------------|  END
-----------------|
-----------------|
-----------------|
Tap to rate this tab
 
# A B C D E F G H I J K L M N O P Q R S T U V W X Y Z