Song name
# A B C D E F G H I J K L M N O P Q R S T U V W X Y Z

Trivium - Built To Fall tab

Trivium - Built To Fall

I worked this song out by ear purely for my youtube cover, so some little bits are missing 
like the high part in the background of the verses, and the harmonies in the bridge/solo.
Some bits might not be 100% accurate to the CD, but it's certainly very close.
Pretty simple song but it sounds great!

Check out my cover here: http://www.youtube.com/watch?v=JsKCwyh3tNg

Please also take a moment to check out my band Tria Mera and like us on Facebook!

Youtube: http://www.youtube.com/watch?v=KzaqB_a20IE
Facebook: www.facebook.com/triameraband

Turning: Drop C#
Tempo: 145bpm

Intro/Verse Riff 1
D#|----------------|------------------|
A#|----------------|------------------|
F#|----------------|------------------|
C#|----------------|------------------|
G#|---8--------4-5-|---10-------7-----|
C#|-0---0----0-----|-8----8---5---5---|

Verse Riff 2
D#|-----------------|-----------------|
A#|-----------------|-----------------|
F#|-----------------|-----------------|
C#|-----------------|-----------------|
G#|-0---0-0-0-0-3-5-|-8-8-8-8-5-5-5-5-|
C#|-0-3-0-0-0-0-3-5-|-8-8-8-8-5-5-5-5-|
     P.M |---------|    |---|   |---|

Pre Chorus
D#|-----------------|-----------------|-----------------|-----------------|
A#|-----------------|-----------------|-----------------|-----------------|
F#|-----------------|-----------------|-----------------|---------6---7-9-|
C#|-3---------------|-----------------|-5---------------|-7-7-7-7---------|
G#|-1---------------|-----------------|-3---------------|-4-4-4-4-4---5-7-|
C#|-----------------|-----------------|-----------------|-----------0-----|
/// Guitar 1
\\\ Guitar 2
D#|-----------------|-----------------|-----------------|-------------------|
A#|-6-5-----6-5-----|-6-5-----6-5-----|-8-6-5---8-6-5---|-10-8--------------|
F#|-----7-------7---|-----7-------7---|-------5-------5-|------10-9-6---7-9-|
C#|-------8-------8-|-------8-------8-|-----------------|-------------7-----|
G#|-----------------|-----------------|-----------------|-------------------|
C#|-----------------|-----------------|-----------------|-------------------|

Chorus
D#|-----------------|-----------------|-----------------|-----------------|
A#|-----------------|-----------------|-----------------|-----------------|
F#|-----------------|-----------------|-----------------|---------6---7-9-|
C#|-----------------|-3-3-3-3-3-3-3-3-|-----------------|-----------------|
G#|-0-0-0-0-0-0-0-0-|-1-1-1-1-1-1-1-1-|-5-5-5-5-5-5-5-5-|-7-7-7-7-4---5-7-|
C#|-0-0-0-0-0-0-0-0-|-----------------|-5-5-5-5-5-5-5-5-|-7-7-7-7---0-----|
/// Guitar 1
\\\ Guitar 2
D#|-------------------------|-----------------|
A#|-------------------------|-----------------|
F#|-7--7--7--10-10-10-12-12-|-9-9-9-9-6---7-9-|
C#|-------------------------|-----------------|
G#|-5--5--5--8--8--8--10-10-|-7-7-7-7-4---5-7-|
C#|------(3 Times)----------|-----------0-----|

D#|-----------------|-----------------|-----------------|-----------------|
A#|-----------------|-----------------|-----------------|-----------------|
F#|-----------------|-----------------|-----------------|---------6---7-9-|
C#|-----------------|-3-3-3-3-3-3-3-3-|-----------------|-----------------|
G#|-0-0-0-0-0-0-0-0-|-1-1-1-1-1-1-1-1-|-5-5-5-5-5-5-5-5-|-7-7-7-7-4---5-7-|
C#|-0-0-0-0-0-0-0-0-|-----------------|-5-5-5-5-5-5-5-5-|-7-7-7-7---0-----|
/// Guitar 1
\\\ Guitar 2
D#|-------------------------|--------------------|----------------|
A#|-------------------------|-10-----10-----10-8-|----------------|
F#|-7--7--7--10-10-10-12-12-|----7------7--------|9-6---9-6---7-9-|
C#|-------------------------|------7------7------|----7-----7-----|
G#|-5--5--5--8--8--8--10-10-|--------------------|----------------|
C#|------(2 Times)----------|--------------------|----------------|

Bridge
D#|-----------------|-----------------|-----------------|-----------------|
A#|-----------------|-----------------|-----------------|-----------------|
F#|-----------------|-----------------|-----------------|-----------------|
C#|-3-3-3-3-3-3-3-3-|-3-3-3-3-5-5-5-5-|-7-7-7-7-7-7-7-7-|-7-7-7-7-5-5-5-5-|
G#|-1-1-1-1-1-1-1-1-|-1-1-1-1-3-3-3-3-|-5-5-5-5-5-5-5-5-|-5-5-5-5-3-3-3-3-|
C#|-----------------|-----------------|-----------------|-----------------|
/// Guitar 1
\\\ Guitar 2
D#|--------------------|---------------------|--------------------|---------------------|
A#|-15----18--17-13-15-|-x-15----18-17-13-15-|-15----18--17-13-15-|-x-15----18-17-13-15-|
F#|---14---------------|-----14--------------|---14---------------|-----14--------------|
C#|-----15--15---------|-------15------------|-----15--15---------|-------15------------|
G#|--------------------|---------------------|--------------------|---------------------|
C#|--------------------|---------------------|--------------------|---------------------|

D#|-----------------|-----------------|-----------------|-----------------|
A#|-----------------|-----------------|-----------------|-----------------|
F#|-----------------|-----------------|-----------------|-----------------|
C#|-3-3-3-3-3-3-3-3-|-3-3-3-3-5-5-5-5-|-7-7-7-7-7-7-7-7-|-7-7-7-7-5-5-5-5-|
G#|-1-1-1-1-1-1-1-1-|-1-1-1-1-3-3-3-3-|-5-5-5-5-5-5-5-5-|-5-5-5-5-3-3-3-3-|
C#|-----------------|-----------------|-----------------|-----------------|
/// Guitar 1
\\\ Guitar 2
D#|--------------------|---------------------|--------------------|---------17-15h17p15------|
A#|-15----18--17-13-15-|-x-15----18-17-13-15-|-15----18--17-13-15-|-x-15---------------18-17-|
F#|---14---------------|-----14--------------|---14---------------|-----14-------------------|
C#|-----15--15---------|-------15------------|-----15--15---------|-------15-----------------|
G#|--------------------|---------------------|--------------------|--------------------------|
C#|--------------------|---------------------|--------------------|--------------------------|

Pre Solo / End Solo Riff
D#|-----------------|
A#|-----------------|
F#|-----------------|
C#|-----------------|
G#|-------------3-3-|
C#|-0-0-2-2-3-3-----|

Solo
D#|--------------------|--------------------|--------------------13h17-|
A#|--------------10-13-|--------------------|------------------15------|
F#|-7----------7-------|-15--14-12---10--12-|-14----12-12----14--------|
C#|--------------------|--------------------|--------------------------|
G#|--------------------|--------------------|--------------------------|
C#|--------------------|--------------------|--------------------------|

D#|-13----------------------------------------------|
A#|----15-18-15-13----15-13-------------------------|
F#|----------------14-------14-12----12-------------|
C#|-------------------------------15----15-14-12----|
G#|----------------------------------------------15-|
C#|-------------------------------------------------|

D#|----------------|---------------------|--------------------|---------------------|
A#|----------------|---------------------|------------10------|-------s15--18-15----|
F#|----------------|-----------7-10-7----|-7-----s10-----10-7-|-10---------------17-|
C#|----------------|------7-10--------10-|--------------------|---------------------|
G#|-5--------5-8-5-|-8s10----------------|--------------------|---------------------|
C#|----------------|---------------------|--------------------|---------------------|

D#|-----------------------------------|-------------------------|
A#|----------------------------10-----|-13-15-13-11-11-10-11-10-|
F#|---------7-9-7-------5-7-10----10--|-------------------------|
C#|-----7-8-------8-7-8---------------|-------------------------|
G#|-7-8-------------------------------|-------------------------|
C#|-----------------------------------|-------------------------|

D#|----------------------13h17-|-t22p17p13-------------------------------|
A#|-13---11-11---------15------|-----------15-----------13--15--13-------|
F#|------------------14--------|--------------14----14--------------14---|
C#|----------------15----------|-----------------15----------------------|
G#|----------------------------|-----------------------------------------|
C#|----------------------------|-----------------------------------------|

D#|------10-----------10-----------10-----------10------|------10-----------10------10-----------|
A#|--------13p10--------13p10--------13p10--------13p10-|--------13p10--------13p10-13b15--------|
F#|-12b14--------12b14--------12b14--------12b14--------|-12b14--------12b14---------------------|
C#|-----------------------------------------------------|----------------------------------------|
G#|-----------------------------------------------------|----------------------------------------|
C#|-----------------------------------------------------|----------------------------------------|

D#|-10-------12-------13------|--15------20------------|
A#|-13b15----15b17----16b18---|--18b20---23b25---------|
F#|---------------------------|------------------------|
C#|---------------------------|------------------------|
G#|---------------------------|------------------------|
C#|---------------------------|------------------------|

Pre Chorus
D#|-----------------|
A#|-----------------|
F#|---------6---7-9-|
C#|-----------------|
G#|---8-----4---5-7-|
C#|-0---0-----0-----|

Outro
D#|-----------------|
A#|-----------------|
F#|-----------------|
C#|-----------------|
G#|---8-------------|
C#|-0---0-----------|

Tap to rate this tab
# A B C D E F G H I J K L M N O P Q R S T U V W X Y Z