Song name
# A B C D E F G H I J K L M N O P Q R S T U V W X Y Z

Trivium - Black tab

Band:  Trivium
Song:  Black
Album: In Waves

Tuning: Drop C# (C#, G#, C#, F#, A#, D#)
(Tune all strings down half a step then drop tune)

I donít think the chorus is right in the small interlude part, thatís all
I think is not correct in this tab at the minute. If anyone wishes to help
Me out with that part and tell me it would be much appreciated.
Also, please rate :D

Hammer on:    h
Pull off:     p
Slide up:     /
Slide down:   \
Vibrato:      ~~~
Bend up:      BU(?)
Muted note:   x

Guitar 1: Matt Heafy
Guitar 2: Corey Beaulieu


Intro Verse
Guitar 1
|---------------------------------|-----------------------------|
|---------------------------------|-----------------------------|
|---------------------------------|-----------------------------|
|---------------------------------|-----------------------------|
|-------------------------3BU(4)--|-----------------------------|
|-0-0-0-0-----0-0-0-0-----3BU(4)--|-0-0-0-0-----0-0-----0-0-----|

Guitar 2
|---------------------------------|-----------------------------|
|---------------------------------|-----------------------------|
|---------------------------------|-----------------------------|
|---------------------------------|-----------------------------|
|-------------------------3BU(4)--|-----------------------------|
|-------------------------3BU(4)--|-0-0-0-0-----0-0-----0-0-----|

Both Guitars
||---------------------------------|-----------------------------||
|o---------------------------------|-----------------------------o| x3
||---------------------------------|-----------------------------||
||---------------------------------|-----------------------------||
|o-------------------------3BU(4)--|-----------------------------o|
||-0-0-0-0-----0-0-0-0-----3BU(4)--|-0-0-0-0-----0-0-----0-0-----||

Guitar 1
|----------------------------------|-----------------------------|
|----------------------------------|-----------------------------|
|----------------------------------|-----------------------------|
|----------------------------------|-----------------------------|
|-----5p0---------5p0---------5p0--|-0-----0-----0---------12\---|
|-0h3---------0h3---------0h3------|-0-----0-----0-0-0-0-0-12\---|

Guitar 2
|----------------------------------|-----------------------------|
|----------------------------------|-----------------------------|
|----------------------------------|-----------------------------|
|----------------------------------|-0-----0-----0---------12\---|
|----------------------------------|-0-----0-----0---------12\---|

Verse 1
Both Guitars
||----------------------------------|-----------------------------|
|o----------------------------------|-----------------------------|
||----------------------------------|-----------------------------|
||----------------------------------|-----------------------------|
|o-----5p0---------5p0---------5p0--|-----5p0---------------------|
||-0h3---------0h3---------0h3------|-0h3---------8-8-8-8-5-5-5-5-|

|------------------------------------|---------------------------------||
|------------------------------------|---------------------------------o| x2
|------------------------------------|---------------------------------||
|------------------------------------|---------------------------------||
|-----10p0---------10p0---------8p0--|-----8p0-------------------------o|
|-0h8----------0h8----------0h7------|-0h7---------7-7-7-7-11-11-11-11-||

Chorus
Guitar 1
|---------------------------------|------------------------------------|
|---------------------------------|------------------------------------|
|---------------------7-6-----x-3-|---3-3-3-3-3-3-3--------------------|
|-0-----------2-3-------------x-3-|---3-3-3-3-3-3-3-5BU(7)(5)-3-2~~~---|
|-0-----------2-3-----5-4-----x-1-|---1-1-1-1-1-1-1--------------------|
|-0-------0-0-2-3-----------------|------------------------------------|

Guitar 2
|---------------------------------|------------------------------------|
|---------------------------------|------------------------------------|
|---------------------7-6-----x-3-|---3-3-3-3-3-3-3--------------------|
|-0-----------2-3-------------x-3-|---3-3-3-3-3-3-3--------------------|
|-0-----------2-3-----5-4-----x-1-|---1-1-1-1-1-1-1-7BU(8)(7)-5-4~~~---|
|-0-------0-0-2-3-----------------|------------------------------------|

Both Guitars
|---------------------------------|---------------------------------|
|---------------------------------|---------------------------------|
|---------------------7-6-----6-3-|---3-3-3-3-3-3-3-6-6-6-6-9-9-9-9-|
|-0-----------2-3---------------3-|---3-3-3-3-3-3-3-----------------|
|-0-----------2-3-----5-4-----4-1-|---1-1-1-1-1-1-1-4-4-4-4-7-7-7-7-|
|-0-------0-0-2-3-----------------|---------------------------------|

Repeat Intro Verse

Repeat Verse 1

Repeat Chorus

Repeat Intro Verse

Pre-Breakdown
Guitar 1
||------------------------------------------||
|o------------------------------------------o| x3
||------------------------------------------||
||------------------------------------------||
|o------------------------------------------o|
||-0-0-0-3BU(5)-0-----0-0-0-3BU(5)-0-3BU(5)-||

|------------------------------------------|
|------------------------------------------|
|------------------------------------------|
|------------------------------------------|
|---------------------------------12\------|
|-0-0-0-3BU(5)-0------------------12\------|

Breakdown Part 1
Both Guitars
||------------------------------------------||
|o------------------------------------------o| x4
||------------------------------------------||
||------------------------------------------||
|o------------------------------------------o|
||-0-0-0-3BU(5)-0-----0-0-0-3BU(5)-0-3BU(5)-||

||-------------------------------------------||
|o-------------------------------------------o| x2
||-------------------------------------------||
||-------------------------------------------||
|o-------------------------------------------o|
||-0-0-0-8BU(10)-0-----0-0-0-7BU(8)-0-7BU(8)-||

||------------------------------------------||
|o------------------------------------------o| x2
||------------------------------------------||
||------------------------------------------||
|o------------------------------------------o|
||-0-0-0-3BU(5)-0-----0-0-0-3BU(5)-0-3BU(5)-||

Breakdown Part 2
Guitar 2 (Guitar 1 plays Breakdown Pt 1)
|-----------------------------------------------------------------|
|-----------------------------------------------------------------|
|-7-7-7-7-7-7-7-7-7-7-7-7-7-7-7-7-6-6-6-6-6-6-6-6-6-6-6-6-6-6-6-6-|
|-----------------------------------------------------------------|
|-5-5-5-5-5-5-5-5-5-5-5-5-5-5-5-5-4-4-4-4-4-4-4-4-4-4-4-4-4-4-4-4-|
|-----------------------------------------------------------------|

|-----------------------------------------------------------------|
|-----------------------------------------------------------------|
|-5-5-5-5-5-5-5-5-5-5-5-5-5-5-5-5-4-4-4-4-4-4-4-4-4-4-4-4-4-4-4-4-|
|-----------------------------------------------------------------|
|-3-3-3-3-3-3-3-3-3-3-3-3-3-3-3-3-2-2-2-2-2-2-2-2-2-2-2-2-2-2-2-2-|
|-----------------------------------------------------------------|

Breakdown Part 3
Guitar 2
|-------------------------|-------------------------|
|-------------------------|-------------------------|
|-14-14-14-14-14-14-14-14-|-13-13-13-13-13-13-13-13-|
|-------------------------|-------------------------|
|-12-12-12-12-12-12-12-12-|-11-11-11-11-11-11-11-11-|
|-------------------------|-------------------------|

|-------------------------|-----------------|
|-------------------------|-----------------|
|-10-10-10-10-10-10-10-10-|-9-9-9-9-9-9-9-9-|
|-------------------------|-----------------|
|--8--8--8--8--8--8--8--8-|-7-7-7-7-7-7-7-7-|
|-------------------------|-----------------|

|-----------------|-----------------|
|-----------------|-----------------|
|-7-7-7-7-7-7-7-7-|-6-6-6-6-6-6-6-6-|
|-----------------|-----------------|
|-5-5-5-5-5-5-5-5-|-4-4-4-4-4-4-4-4-|
|-----------------|-----------------|

|-----------------|-----------------|
|-----------------|-----------------|
|-5-5-5-5-5-5-5-5-|-4-4-4-4-4-4-4-4-|
|-----------------|-----------------|
|-3-3-3-3-3-3-3-3-|-2-2-2-2-2-2-2-2-|
|-----------------|-----------------|

Solo
Guitar 2 (Rhythm Guitar plays Breakdown Pt 1)
||-------------------------||
||-------------------------|| x7
||-19-19-19-19-19-19-19-19-||
||-------------------------||
||-17-17-17-17-17-17-17-17-||
||-------------------------||

|-------------------------|
|-------------------------|
|-22-22-22-22-22-22-22-22-|
|-------------------------|
|-20-20-20-20-20-20-20-20-|
|-------------------------|

|-------------------------------------------------|
|-------------------------------------------------|
|-19-19-19-19-19-19-19-19-18-18-18-18-18-18-18-18-|
|-------------------------------------------------|
|-17-17-17-17-17-17-17-17-16-16-16-16-16-16-16-16-|
|-------------------------------------------------|

|-------------------------------------------------|
|-------------------------------------------------|
|-19-19-19-19-19-19-19-19-14-14-14-14-14-14-14-14-|
|-------------------------------------------------|
|-17-17-17-17-17-17-17-17-12-12-12-12-12-12-12-12-|
|-------------------------------------------------|

|-------------------------------------------------|
|-17-18-17-15-17-15----15-17-18-17-15-17-15----15-|
|-------------------15----------------------15----|
|-------------------------------------------------|
|-------------------------------------------------|
|-------------------------------------------------|
|
| Harmony ^^^
|-15-17-15-13-15-13----13-15-17-15-13-15-13----13-|
|-------------------15----------------------15----|
|-------------------------------------------------|
|-------------------------------------------------|
|-------------------------------------------------|
|-------------------------------------------------|

|-------------------------------------------------------------------------|
|-------------------------------------------------------10-12-13-10-12-13-|
|-------------------------------------10-11-12-10-11-12-------------------|
|-------------------10-11-12-10-11-12-------------------------------------|
|-10-11-12-10-11-12-------------------------------------------------------|
|-------------------------------------------------------------------------|

|-------------|
|-15~~~~~\----|
|-------------|
|-------------|
|-------------|
|-------------|
|
| Harmony ^^^
|-13~~~~~\----|
|-------------|
|-------------|
|-------------|
|-------------|
|-------------|

Repeat Chorus x2

Repeat Intro Verse

Repeat Breakdown Part 2 over Intro Verse


Thatís all,
Please Rate and Enjoy :)
Tap to rate this tab
# A B C D E F G H I J K L M N O P Q R S T U V W X Y Z