Song name
# A B C D E F G H I J K L M N O P Q R S T U V W X Y Z

Trivium - Inception Of The End Bridge tab

INCEPTION OF THE END "BRIDGE"
Trivium
In Waves (2011)

Couldnt find a tab for this so i thought id give it a go.
Be Kind, i've never tabbed before......
This is what I can gather from listening to the song and
watching a small bit of live footage from Mayhem Festival 2011.
There is another lead part played over this on the album the second time around but its 
not played live. Anyhow, This is Cory's part....
Bridge (2:24-2:34) & (2:53-3:01)

Tremelo Picking..........

D#------------------------------------------------------|
A#------------------------------------------------------|
F#------------7--8---------------------8---10-----------|
C#----5---8---------8--5------7---10------------7---10--|
G#------------------------------------------------------|
C#------------------------------------------------------|


D#------------------------------------------------------|
A#------------------------------------------------------|
F#---------10----------10---------9---------------------|
C#-----12----------12----------9-------------12---------|
G#-13----------12----------11------------11-------------|
C#-----------------------------------14-----------------|


D#------------------------------------------------------|
A#------------------------------------------------------|
F#---------------------------------------14-------------|
C#---------------------------11--------------14---------|
G#---12----------12--------------12--------------16-----|
C#-------14--11------14--11----------14-----------------|

CHEERS!!!
Tap to rate this tab
# A B C D E F G H I J K L M N O P Q R S T U V W X Y Z