Song name
# A B C D E F G H I J K L M N O P Q R S T U V W X Y Z

Trivium - Built To Fall Acoustic tab

-------------------------------------------------------------------------------
			     BUILT TO FALL (ACOUSTIC) - Trivium.
-------------------------------------------------------------------------------

Tabbed by: mariewong.





Tuning: Drop C#.





Intro

d#|-------------------------------|
A#|-------------------------------|
F#|-------------------------------|
C#|-------------------------------|   [x4]
G#|----8------4-5----10------7----|
C#|--0---0--0------8----8--5---5--|



Verse

d#|-------------------------------|
A#|-------------------------------|
F#|-------------------------------|
C#|-------------------------------|   [x4]
G#|----8------4-5----10------7----|
C#|--0---0--0------8----8--5---5--|

d#|---------------------------------------|
A#|---------------------------------------|
F#|---------------------------------------|
C#|--0-3-0-x-x-x-x-x----------------------|   [x4]
G#|--0-3-0-x-x-x-x-x--10-10-x-x--7-7-x-x--|
C#|--0-3-0-x-x-x-x-x--8--8--x-x--5-5-x-x--|

d#|------------------------------|
A#|------------------------------|
F#|------------------------------|
C#|--8~--10~--11-x-x-x-----------|
G#|--8~--10~--11-x-x-x--4-0-5-7--|
C#|--8~--10~--11-x-x-x-----------|



Chorus

d#|-------------------------------------------|
A#|-------------------------------------------|
F#|-------------------------------------------|
C#|--0-------8-------5-------7----------------|   [x2]
G#|--0-(x8)--8-(x8)--5-(x8)--7-(x8)--4-0-5-7--|
C#|--0-------8-------5-------7----------------|

d#|-----------------------------------|
A#|-----------------------------------|
F#|-----------------------------------|
C#|-----------------------------------|
G#|----8----------4-5----10------7----|
C#|--0---0--x-x-0------8----8--5---5--|

d#|------------------------------------|
A#|------------------------------------|
F#|------------------------------------|
C#|------------------------------------|
G#|----8----------4-5----10------7-7\--|
C#|--0---0--x-x-0------8----8--5---5\--|



Verse

d#|---------------------------------------|
A#|---------------------------------------|
F#|---------------------------------------|
C#|--0-3-0-x-x-x-x-x----------------------|   [x4]
G#|--0-3-0-x-x-x-x-x--10-10-x-x--7-7-x-x--|
C#|--0-3-0-x-x-x-x-x--8--8--x-x--5-5-x-x--|

d#|------------------------------|
A#|------------------------------|
F#|------------------------------|
C#|--8~--10~--11-x-x-x-----------|
G#|--8~--10~--11-x-x-x--4-0-5-7--|
C#|--8~--10~--11-x-x-x-----------|



Chorus

d#|-------------------------------------------|
A#|-------------------------------------------|
F#|-------------------------------------------|
C#|--0-------8-------5-------7----------------|   [x2]
G#|--0-(x8)--8-(x8)--5-(x8)--7-(x8)--4-0-5-7--|
C#|--0-------8-------5-------7----------------|



Bridge

d#|--------------------------------------|
A#|--------------------------------------|
F#|--------------------------------------|
C#|--8--------10-------12-------10-------|   [x5]
G#|--8-(x12)--10-(x4)--12-(x12)-10-(x4)--|
C#|--8--------10-------12-------10-------|

d#|---------------------------------------------------------------|
A#|---------------------------------------------------------------|
F#|---------------------------------------------------------------|
C#|--8--------10-------12-----------------------------------------|
G#|--8-(x12)--10-(x4)--12-(x8)--------------3-3-----8----4-0-5-7--|
C#|--8--------10-------12-------0-0-2-2-3-3-------0---0-----------|



Chorus

d#|-------------------------------------------|
A#|-------------------------------------------|
F#|-------------------------------------------|
C#|--0-------8-------5-------7----------------|   [x2]
G#|--0-(x8)--8-(x8)--5-(x8)--7-(x8)--4-0-5-7--|
C#|--0-------8-------5-------7----------------|


d#|-------------------------------------------|
A#|-------------------------------------------|
F#|-------------------------------------------|
C#|--0-------8-------5-------7----------------|   [x2]
G#|--0-(x8)--8-(x8)--5-(x8)--7-(x4)--4-0-5-7--|
C#|--0-------8-------5-------7----------------|

d#|---------|
A#|---------|
F#|---------|
C#|---------|
G#|----8----|
C#|--0---0--|





************************************

| /   slide up
| \   slide down
| h   hammer-on
| p   pull-off
| ~   vibrato
| +   harmonic
| x   Mute note
| b   Bend
| pb  Pre-bend
| br  Bend release
| pbr Pre-bend release
| brb Bend release bend

************************************
Tap to rate this tab
 
# A B C D E F G H I J K L M N O P Q R S T U V W X Y Z