Song name
# A B C D E F G H I J K L M N O P Q R S T U V W X Y Z

Trivium - Of All These Yesterdays tab

Hey,this is the intro,verse,pre-chorus & chorus of this amazing song of trivium,the solo 
i will upload.
Tuning: Drop C
Pull off:   p

Intro:
D|-----------------------------------------------|
A|-----------------------------------------------|
F|-----------------------------------------------|
C|----0----3----0----3p2-----0----3----0-2-2-2---| X3
G|---0----0----0--------0---0----0----0--0-0-0---|
C|-33---00---33---00------33---00---33-----------|

Verse:
D|-----------------------------------------------|
A|-----------------------------------------------|
F|-----------------------------------------------|
C|---55--55--55--55--20---20---20---20-----------|
G|--0---0---0---0---0--3-0--3-0--3-0--3----------|
C|-8---8---8---8---------------------------------|

D|-----------------------------------------------|
A|-----------------------------------------------|
F|-----------------------------------------------|
C|---55--55--55--55--33--33--33--33--------------| X2
G|--0---0---0---0---0---0---0---0----------------|
C|-8---8---8---8---5---5---5---5-----------------|

Pre-Chorus:
D|-----------------------------------------------|
A|-----------------------------------------------|
F|1010101010101010101010-1212121414--------------|
C|-----------------------------------------------|
G|-8-8-8-8-8-8-8-8-8-8-8-1010101212--------------|
C|-----------------------------------------------|

D|-----------------------------------------------|
A|-----------------------------------------------|
F|1010101010101010101010-1212121414--------------|
C|-----------------------------------------------|
G|-8-8-8-8-8-8-8-8-8-8-8-1010101212--------------|
C|-----------------------------------------------|

D|-----------------------------------------------|
A|-----------------------------------------------|
F|1010101010101010101010-1212121414-999999999----|
C|-----------------------------------------------|
G|-8-8-8-8-8-8-8-8-8-8-8-1010101212-777779999----|
C|-----------------------------------------------|

.Repeat Intro X2

.Repeat Pre-Chorus

Chorus:

A|-----------------------------------------------|
F|1010101010101010101010-1212121414--------------|
C|-----------------------------------------------|
G|-8-8-8-8-8-8-8-8-8-8-8-1010101212--------------|
C|-----------------------------------------------|

D|-----------------------------------------------|
A|-----------------------------------------------|
F|1010101010101010101010-1212121414--------------|
C|-----------------------------------------------|
G|-8-8-8-8-8-8-8-8-8-8-8-1010101212--------------|
C|-----------------------------------------------|

D|-----------------------------------------------|
A|-----------------------------------------------|
F|1010101010101010101010-1212121414-999999999----|
C|-----------------------------------------------| X2
G|-8-8-8-8-8-8-8-8-8-8-8-1010101212-777779999----|
C|-----------------------------------------------|
Tap to rate this tab
 
# A B C D E F G H I J K L M N O P Q R S T U V W X Y Z