Song name
# A B C D E F G H I J K L M N O P Q R S T U V W X Y Z

Trivium - Of All These Yesterdays tab

I mainly wrote this from the first guy who wrote this tab, but I altered it a bit 
to make it sound closer (atleast to me), so props to that guy. All props to Trivium! \m/

Sorry, no solo.

Tuning: Drop C
Pull off: p
Hammer: h


Intro:
D|------------------------------------------------------------|
A|------------------------------------------------------------|
F|------------------------------------------------------------|
C|-----1------4------1-----4p1--------1------4-----1-1--3-3-3-| X3
G|---1------1------1----------1-----1------1-------1-1--3-3-3-|
C|-11-1---11-1---11-1---11--------11-1---11-1---11------------|

Verse:
D|-----------------------------------------------|
A|-----------------------------------------------|
F|-----------------------------------------------|
C|---86----6-----6-----6--6864686468646864-------|
G|6h8---6h8---6h8---6h8--------------------------|
C|-----------------------------------------------|

D|-----------------------------------------------|
A|-----------------------------------------------|
F|-----------------------------------------------|
C|---6-----6-----6-----6----6-----6-----6-----6--| X2
G|6h8---6h8---6h8---6h8--4h8---4h8---4h8---4h8---|
C|-----------------------------------------------|

Pre-Chorus:
D|-----------------------------------------------|
A|-----------------------------------------------|
F|1111111111111111111111-1313131515--------------| (11's not 1's)
C|-----------------------------------------------|
G|-9-9-9-9-9-9-9-9-9-9-9-1111111313--------------| (11's not 1's)
C|-----------------------------------------------|

D|-----------------------------------------------|
A|-----------------------------------------------|
F|1111111111111111111111-1313131515--------------| (11's not 1's)
C|-----------------------------------------------|
G|-9-9-9-9-9-9-9-9-9-9-9-1111111313--------------| (11's not 1's)
C|-----------------------------------------------|

D|--------------------------------------------------|
A|--------------------------------------------------|
F|1111111111111111111111-13131315151010101010101010-| (11's not 1's)
C|--------------------------------------------------|
G|-9-9-9-9-9-9-9-9-9-9-9-1111111313-8-8-8-8-8-8-8-8-| (11's not 1's)
C|--------------------------------------------------|

.Repeat Intro X2

.Repeat Pre-Chorus

Chorus:

D|-----------------------------------------------|
A|-----------------------------------------------|
F|1111111111111111111111-1313131515--------------| (11's not 1's)
C|-----------------------------------------------|
G|-9-9-9-9-9-9-9-9-9-9-9-1111111313--------------| (11's not 1's)
C|-----------------------------------------------|

D|-----------------------------------------------|
A|-----------------------------------------------|
F|1111111111111111111111-1313131515--------------| (11's not 1's)
C|-----------------------------------------------|
G|-9-9-9-9-9-9-9-9-9-9-9-1111111313--------------| (11's not 1's)
C|-----------------------------------------------|

D|--------------------------------------------------|
A|--------------------------------------------------|
F|1111111111111111111111-13131315151010101010101010-| (11's not 1's)
C|--------------------------------------------------|
G|-9-9-9-9-9-9-9-9-9-9-9-1111111313-8-8-8-8-8-8-8-8-| (11's not 1's)
C|--------------------------------------------------|
Tap to rate this tab
# A B C D E F G H I J K L M N O P Q R S T U V W X Y Z