Song name
# A B C D E F G H I J K L M N O P Q R S T U V W X Y Z

Trivium - Of All These Yesterdays tab

I have seen many tabs for this song, all of which have been wrong (from what i have 
seen) This version will probably help you the most.


Intro:
D|--------------------------------------------------|
A|--------------------------------------------------|
F|--------------------------------------------------|
C|-----0-----3-----0---3p0------0-----3----0-0-2-2-2| X3
G|---0-----0-----0--------0---0-----0---0-0-0-0-0-0-|
C|3-3-3-0-0-0-3-3-3-0-0----3-3-3-0-0-0--------------|

Verse:
D|-------------------------------------------------------------|
A|-------------------------------------------------------------|
F|---------------------2p0--2p0--2p0--2p0-----0----0----0----0-|
C|----0----0----0----0----3----3----3----3-0h3--0h3--0h3--0h3--|
G|-0h3--0h3--0h3--0h3------------------------------------------|
C|1----1----1----1----0----0----0----0----3----3----3----3-----|

Last Part of Verse:
D|--------------------|
A|--------------------|
F|----0----0----0----0|
C|-0h2--0h2--0h2--0h2-|
G|3----3----3----3----|
C|--------------------|
Tap to rate this tab
# A B C D E F G H I J K L M N O P Q R S T U V W X Y Z