Song name
# A B C D E F G H I J K L M N O P Q R S T U V W X Y Z

Trivium - Torn Between Scylla And Charybdis tab

 A Easier solo


e|-14-10----14-10----|-12-9----12-9----|-14-10----14-10----|
b|-------12-------12-|------11------11-|-------12-------12-|
g|-------------------|-----------------|-------------------|
D|-------------------|-----------------|-------------------|
A|-------------------|-----------------|-------------------|
E|-------------------|-----------------|-------------------|
B|-------------------|-----------------|-------------------|

e|-15-12----15-12----|-18-15----|-12-9----|-15-12----|-9-6---|
b|-------14-------14-|-------17-|------11-|-------14-|-----8-|
g|-------------------|----------|---------|----------|-------|
D|-------------------|----------|---------|----------|-------|
A|-------------------|----------|---------|----------|-------|
E|-------------------|----------|---------|----------|-------|
B|-------------------|----------|---------|----------|-------|
                     harm/whammy
e|-12-9----|-6-3---|-------|-----------------------|--------------------|
b|------11-|-----5-|-------|-----------------------|--------------------|
g|---------|-------|-4*\---|-----------------10----|-----------12-14-12-|
D|---------|-------|----\--|-/11-12-11-12-14----14-|-/16-14-16----------|
A|---------|-------|-----\-|-----------------------|--------------------|
E|---------|-------|-------|-----------------------|--------------------|
B|---------|-------|-------|-----------------------|--------------------|

e|---------------------------------------|-14-14-14-14-14-15-14-12----------|
b|-12-0-11-0-14-0-12-0-15-0-14-0-17-0-15-|-------------------------15-14-12-|
g|---------------------------------------|----------------------------------|
D|---------------------------------------|----------------------------------|
A|---------------------------------------|----------------------------------|
E|---------------------------------------|----------------------------------|
B|---------------------------------------|----------------------------------|

e|----------------------|-15-12----------------12-15-12----------------12-|
b|----------------------|-------------------------------------------------|
g|-14-12-11-------------|-------16-12----12-14----------16-12----12-16----|
D|----------14-12-11----|-------------14----------------------14----------|
A|-------------------14-|-------------------------------------------------|
E|----------------------|-------------------------------------------------|
B|----------------------|-------------------------------------------------|

e|-14-11-----------------11-14-11----------------11-|-------------------|
b|--------------------------------------------------|-------------------|
g|-------15-11----11-15-----------15-11----11-15----|----------11-11-11-|
D|-------------13-----------------------13----------|-13-13-13----------|
A|--------------------------------------------------|-------------------|
E|--------------------------------------------------|-------------------|
B|--------------------------------------------------|-------------------|

e|-------------------------------------------------------|------------------|
b|----------------------------------------------13-13-13-|------------------|
g|-14-14-14-------------------11-11-11-14-14-14----------|---------11-11-11-|
D|----------10-10-10-13-13-13----------------------------|13-13-13----------|
A|-------------------------------------------------------|------------------|
E|-------------------------------------------------------|------------------|
B|-------------------------------------------------------|------------------|

e|-------------------11-14-12\-|-12---12---14--14---15--15---17--17--|
b|----------13-13-13-----------|-15b--15b--17b-17b--18b-18b--20b-20b-|
g|-14-14-14--------------------|-------------------------------------|
D|-----------------------------|-------------------------------------|
A|-----------------------------|-------------------------------------|
E|-----------------------------|-------------------------------------|
B|-----------------------------|-------------------------------------|

e|-14-------14--------17-------17-------|
b|----12-------12-----------------------|
g|-------11-------11-----16-14----16-14-|
D|--------------------------------------|
A|--------------------------------------|
E|--------------------------------------|
B|--------------------------------------|

e|----------------------------14-15-17----------15-17-19----------17-19-20-|
b|-------------------13-16-17----------16-17-19----------17-19-20----------|
g|----------12-14-16-------------------------------------------------------|
D|-13-14-16----------------------------------------------------------------|
A|-------------------------------------------------------------------------|
E|-------------------------------------------------------------------------|
B|-------------------------------------------------------------------------|

e|-22b~-|
b|------|
g|------|
D|------|
A|------|
E|------|
B|------|
Tap to rate this tab
# A B C D E F G H I J K L M N O P Q R S T U V W X Y Z