Song name
# A B C D E F G H I J K L M N O P Q R S T U V W X Y Z

Trivium - Washing Away Me In The Tides tab

|---------------------------------------------------------------------|
|---------------------------------------------------------------------|
|----------------------------------------------------------------5----|
|--------------------------7----------2--3----------3--2b--3---3---3--|
|-0------------------------5-----------------1--1---------------------|
|-0-0--0-0-0--0--0--0-0-0----0--0-0-0------0--------------------------|
    .  . . .  .  .  . . .    .  . . .      .

|--------------| |------------------------------------------------------------|
|--------------| |------------------------------------------------------------|
|-7-5-4--------| |------------------------------------------------------------|
|--------5-3-2-| |-------------------------7----------2-3-------3-2b--0---0-0-|
|--------------| |-0-----------------------5----------------1-1---------------|
|--------------| |-0-0--0-0-0--0--0--0-0-0---0--0-0-0-----0-------------------|
                     .  . . .  .  .  . . .   .  . . .     .
----------|  |------------------------------------------------------------|
----------|  |------------------------------------------------------------|
----------|  |------------------------------------14----------------------|
----------|3x|--12---------10---------12-------12-------------------------|
--3-3-3-3-|  |-----8-8-8-8----8-8-8-8----8--10-------12-10-12-------------|
----------|  |------------------------------------------------------------|

--------------------------------------------------------------|
--------------------------------------------------------------|
--------------------------------------------------------------|
--15-------------14-------------15----------14----------14-15-|
-----12-12-12-12----12-12-12-12----12-12-12----12-12-12-------|
--------------------------------------------------------------|

------------------------------------------------------------|
------------------------------------------------------------|
------17--17\-------------14--------------------------------|
--15------------15-----17----17---------------15--14--------|
-------------------15-----------15--15----17---------15-----|
---------------------------------------17-------------------|


------------------------------------------------------------|
----------------17------------------------------------------|
---15-14-15--------17--14-----------------------------------|
------------------------------------------------------------|
------------------------------------------------------------|
------------------------------------------------------------|x2


--------------------------------------------------------------|
--------------------------------------------------------------|
--------------------------------------------------------------|
--------------------------------------------------------------|
-------3------5--------3------7--------3------8---------------|
-0-0h3---5--3----0-0h3---5--3----0-0h3---5--3-----------------|


--------------------------------------------------------------|
--------------------------------------------------------------|
--------------------------------------------------------------|
--------------5--3--2--3--------------------------------------|
-------3------------------------------------------------------|
-0-0h3---5----0--0--0--0--------------------------------------|


--------------------------------------------------------------|
--13b---------------------------------------------------------|
--12b---10-----------12--10-----------------------------------|
-----------12------12--12--12-12-10--10-----------------------|
-----------------------------------12--12-10-12-10-8----------|
--------------------------------------------------------------|


----------------------------------------------------------13-10-|
----------------------------10----10-13-10----10-12-13-12-------|
----------------------12-10----12----------12-------------------|
-------------10-12-10-------------------------------------------|
-12-10-12-10----------------------------------------------------|
----------------------------------------------------------------|


----10-13-10-15-10-13-10--------------------------------------|
-13----------------------13-10-13-10--------------------------|
-------------------------------------12-10-12-12b-12-10-12br--|
--------------------------------------------------------------|
--------------------------------------------------------------|
--------------------------------------------------------------|


-------------------------17----------------------17-20-17-----------------|
----------------------20----20----------------20----------20-17-----------|
-------------------22----------22-------------------------------19-17-----|
----------------19----------------21-19-17-19-------------------------17--|
----------20-22-----------------------------------------------------------|
-15-17-19-----------------------------------------------------------------|


-15brb--15-13-------------------------------------------------|
--------------15-13-15------------------------10----10----10--|
----------------------------12--10------------10----10----10--|
-----------------------------------12--12--12----12----12-----|
--------------------------------------------------------------|
--------------------------------------------------------------|


--------------------------------------------------------------|
----10--/10---------------------------------------------------|
----10------10------------------------------------------------|
-12-----------------------------------------------------------|
--------------------------------------------------------------|
--------------------------------------------------------------|


--------------------------------------------------------------|
--13b--13b-------------10-----------------10-10---------------|
--12b--12b--10---------10-----12-10-------10-10---------------|
-----------------12-12-----12-------12-12---------------------|
--------------------------------------------------------------|
--------------------------------------------------------------|


--------------------------------------------------------------|
--------------------------------------------------------------|
----------------------------------------------10-------10-10--|
----------10----------------10-12-12-10-12-12----12-10--------|
-10-12-12----12-10-10-12-12-----------------------------------|
--------------------------------------------------------------|

---------------------------------------------------------------|
----------------------------------------------12-----18-----22-|
-12-12-13-13-10-12-13-13-12-10-10-12-13-13-14------------------|
---------------------------------------------------------------|
---------------------------------------------------------------|
---------------------------------------------------------------|

     second solo

------------------------------------------------------------|
------------------------------------------------------------|
------------------------------------------------------------|
-12-15-14-15-12-15-14-15-12-15-14-15-12-15-14---------------|
------------------------------------------------------------|
------------------------------------------------------------|

------------------------------------------------------------|
------------------------------------------------------------|
------------------------------------------------------------|
-8-12-10-12-8-12-10-12-8-12-10-12-8-12-10-12----------------|
------------------------------------------------------------|
------------------------------------------------------------|

------------------------------------------------------------|
------------------------------------------------------------|
------------------------------------------------------------|
-10-14-12-14-10-14-12-14-10-14-12-14-10-14-12-14------------|
------------------------------------------------------------|
------------------------------------------------------------|

------------------------12-10----------------------------------|
---------------------11-------11-10----------------------------|
---------10-12-12-14----------------12-10----------------------|
-8-12-14----------------------------------14-12--(15)last-note-|
---------------------------------------------------------------|
---------------------------------------------------------------|
repeat this until end and last time u play it through finish on the 15
Tap to rate this tab
# A B C D E F G H I J K L M N O P Q R S T U V W X Y Z