Song name
# A B C D E F G H I J K L M N O P Q R S T U V W X Y Z

Trivium - Brave This Storm tab

Tabbed by: Connor Ford

Band:  Trivium
Song:  Brave This Storm
Album: Vengeance Falls (2013)


Tuning: Drop C# (C#, G#, C#, F#, A#, D#)
(Tune all strings down half a step then drop tune)

Very interesting style for Trivium. Sounds like In Waves with a slight David
Draiman (Disturbed) influence on the vocal melodies and style, which even
though I understand some people don't like this change I quite like this new
found style. The solo is quite simple, one or two quick licks that'll take
some practicing to nail but won't take much time to master! 

All in all though, a solid song in my opinion. I'm looking forward to tabbing
the full album of Vengeance Falls on October 15th. If you're fans of Trivium's
early stuff, be sure to check out Shogun and In Waves on my contributions!

Please rate, comment, correct, anything that will help :)

Guitar tone provided by NiteSlayer777 on Youtube: http://www.youtube.com/watch?v=AQBnlLuBS1A

Drive:             10
Bass:               8
Mid:                4
Treble:             6
Presence/Chan Vol:  7


Hammer on:        h
Pull off:         p
Slide up:         /
Slide down:       \
Bend up:          BU(?)
Tapped note:      T
Vibrato:          ~~~
Pinch Harmonic:   PH
Natural Harmonic: NH
Dive Bomb:        DB
After Muting:     M
Pick slide:       X\\\ ('\' indicated duration)

Guitar 1:        Matt Heafy
Guitar 2:        Corey Beaulieu

_________________________________________________________________________

Intro
Both guitars
|------|
|------|
|------|
|-X\\\-|
|-X\\\-|
|-X\\\-|

Guitar 1
|-----------------------------------------------------------------|
|-----------------------------------------------------------------|
|-----------------------------------------------------------------|
|-0-M-------------------------------------------------------------|
|-0-M-------------------------------------------------------------|
|-0-M-------------------------------------------------------------|
|
|Guitar 2
|-----------------------------------------------------------------|
|-----------------------------------------------------------------|
|-----------------------------------------------------------------|
|-----------------------------------------------------------------|
|-----------------------------------------------------------------|
|-0-0-0-0-0-0-0-0-0-0-0-0-0-0-0-0-0-0-0-0-0-0-0-0-0-0-0-0-0-0-0-0-|

Guitar 1
|-----------------------------------------------------------------|
|-----------------------------------------------------------------|
|-----------------------------------------------------------------|
|-----------------------------------------------------------------|
|-----------------------------------------------5h8p5p0-----------|
|-------------------------------------------------------5~~~~~~~~-|
|
|Guitar 2
|-----------------------------------------------------------------|
|-----------------------------------------------------------------|
|-----------------------------------------------------------------|
|-----------------------------------------------------------------|
|-----------------------------------------------5h8p5p0-----------|
|-0-0-0-0-0-0-0-0-0-0-0-0-0-0-0-0-0-0-0-0-0-0-0---------5~~~~~~~~-|

Both guitars
|-----------------------------------------------------------------|
|-----------------------------------------------------------------|
|-----------------------------------------------------------------|
|-----------------------------------------------------------------|
|-0---------------------------------------------------------------|
|-0---0-0-0-0-0-0-0-0-0-0-0-0-0-0-0-0-0-0-0-0-0-0-0-0-0-0-0-0-0-0-|

|-----------------------------------------------------------------|
|-----------------------------------------------------------------|
|-----------------------------------------------------------------|
|-----------------------------------------------------------------|
|-----------------------------------------------5h8p5p0-----------|
|-0-0-0-0-0-0-0-0-0-0-0-0-0-0-0-0-0-0-0-0-0-0-0---------5~~~~~~~~-|


_________________________________________________________________________


The drums then kick in and both guitars continue playing the riff below

Verse 1 (Chugging)
Both guitars
|-----------------------------------------------------------------|
|-----------------------------------------------------------------|
|-----------------------------------------------------------------|
|-----------------------------------------------------------------|
|-0---------------------------------------------------------------|
|-0---0-0-0-0-0-0-0-0-0-0-0-0-0-0-0-0-0-0-0-0-0-0-0-0-0-0-0-0-0-0-|

|-----------------------------------------------------------------|
|-----------------------------------------------------------------|
|-----------------------------------------------------------------|
|-----------------------------------------------------------------|
|-----------------------------------------------5h8p5p0-----------|
|-0-0-0-0-0-0-0-0-0-0-0-0-0-0-0-0-0-0-0-0-0-0-0---------5~~~~~~~~-|

|-----------------------------------------------------------------|
|-----------------------------------------------------------------|
|-----------------------------------------------------------------|
|-----------------------------------------------------------------|
|-0---------------------------------------------------------------|
|-0---0-0-0-0-0-0-0-0-0-0-0-0-0-0-0-0-0-0-0-0-0-0-0-0-0-0-0-0-0-0-|

Guitar 1
|-----------------------------------------------------------------|
|-----------------------------------------------------------------|
|-------------------------------------------------6----BU---(7)---|
|-----------------------------------------------------------------|
|-------------------------------------------------4----BU---(5)---|
|-0-0-0-0-0-0-0-0-0-0-0-0-0-0-0-0-0-0-0-0-0-0-0-0-----------------|
|
|Guitar 2
|-----------------------------------------------------------------|
|-----------------------------------------------------------------|
|-------------------------------------------------9----BU--(10)---|
|-----------------------------------------------------------------|
|-------------------------------------------------7----BU---(8)---|
|-0-0-0-0-0-0-0-0-0-0-0-0-0-0-0-0-0-0-0-0-0-0-0-0-----------------|


_________________________________________________________________________


Root Verse
Both guitars
|-------------------------------------------------|
|-------------------------------------------------|
|-------------------------------------------------|
|-------------------------------------------------|
|-------------------------------------------------|
|-0--0--0--2BU(3)--2BU(3)--0--0-0-0---0-0-0-0-0---|

|-------------------------------------------------|
|-------------------------------------------------|
|-------------------------------------------------|
|-------------------------------------------------|
|-------------------------------------0---2---3---|
|-0--0--0--2BU(3)--2BU(3)--0--0-0-0---0---2---3---|

|-------------------------------------------------|
|-------------------------------------------------|
|-------------------------------------------------|
|-------------------------------------------------|
|-------------------------------------------------|
|-3--3--3--5BU(7)--5BU(7)--3--3-3-3---3-3-3-3-3---|

|-------------------------------------------------|
|-------------------------------------------------|
|-------------------------------------------------|
|-------------------------------------------------|
|-------------------------------------6---5---3---|
|-3--3--3--5BU(7)--5BU(7)--3--3-3-3---6---5---3---|


_________________________________________________________________________


Main Verse
Both guitars
|------------------------------------------------------------------------|
|------------------------------------------------------------------------|
|------------------------------------------------------------------------|
|------------------------------------------------------------------------|
|---------------------------------------------------------------0--2--3--|
|-0--0--0--2BU(3)--000-0-0---2BU(3)--0--0--0--2BU(3)--000-0-0---0--2--3--|

|------------------------------------------------------------------------|
|------------------------------------------------------------------------|
|------------------------------------------------------------------------|
|------------------------------------------------------------------------|
|---------------------------------------------------------------6--5--3--|
|-3--3--3--5BU(7)--333-3-3---5BU(7)--3--3--3--5BU(7)--333-3-3---6--5--3--|

Guitar 1
|------------------------------------------------------------------------|
|------------------------------------------------------------------------|
|------------------------------------------------------------------------|
|------------------------------------------------------------------------|
|----------------------------333-555----------------------------0--2--3--|
|-0--0--0--2BU(3)--000-0-000---------0--0--0--2BU(3)--000-0-000-0--2--3--|
|
|Guitar 2
|------------------------------------------------------------------------|
|------------------------------------------------------------------------|
|----------------------------555-777-------------------------------------|
|------------------------------------------------------------------------|
|---------------------------------------------------------------0--2--3--|
|-0--0--0--2BU(3)--000-0-000---------0--0--0--2BU(3)--000-0-000-0--2--3--|

Guitar 1
|------------------------------------------------------------------------|
|------------------------------------------------------------------------|
|------------------------------------------------------------------------|
|------------------------------------------------------------------------|
|----------------------------666-888----------------------------6--5--3--|
|-3--3--3--5BU(7)--333-3-333---------3--3--3--5BU(7)--333-3-333-6--5--3--|
|
|Guitar 2
|------------------------------------------------------------------------|
|--------------------------------666-------------------------------------|
|----------------------------888-----------------------------------------|
|------------------------------------------------------------------------|
|---------------------------------------------------------------6--5--3--|
|-3--3--3--5BU(7)--333-3-333---------3--3--3--5BU(7)--333-3-333-6--5--3--|


_________________________________________________________________________


Pre Chorus
Guitar 1
|---------------------------------------------------------------------------|
|---------------------------------------------------------------------------|
|---------------------------------------------------------------------------|
|-0-------------------------------------------------------------------------|
|-0-------------------------------------------------------5h8p5p0-----------|
|-0---------------------------------------------------------------5~~~~~~~~-|
|
|Guitar 2
|---------------------------------------------------------------------------|
|---------------------------------------------------------------------------|
|---------------------------------------------------------------------------|
|---------------------------------------------------------------------------|
|-----5-----------4-----7-----8-----4-----5---------------5h8p5p0-----------|
|-0-0---0-0-8-0-0---0-0---0-0---0-0---0-0---0-0-0-0-0-0-0---------5~~~~~~~~-|

Both Guitars
|------------------------------------------------------------------|
|------------------------------------------------------------------|
|------------------------------------------------------------------|
|------------------------------------------------------------------|
|-----5-----------4-----7-----8-----4-----5------------------------|
|-0-0---0-0-8-0-0---0-0---0-0---0-0---0-0---0-0-0-000000000---0000-|


_________________________________________________________________________


Chorus
Guitar 1
|------------------------------------------|
|------------------------------------------|
|------------------------------------------|
|-0----------------------------------------|
|-0----------------------------------------|
|-0----------------------------------------|
|
|Guitar 2
|------------------------------------------|
|---------------------10------8------------|
|-7777-10-7777-9-7777----7777---7777-10~~~-|
|------------------------------------------|
|------------------------------------------|
|------------------------------------------|

Guitar 1
|-------------------------------------|
|-------------------------------------|
|-------------------------------------|
|-3-----------------------------------|
|-3-----------------------------------|
|-3-----------------------------------|
|
|Guitar 2
|-------------------------------------|
|------8------6------10---8---6---5h6-|
|-5555---5555---5555----5---5---5-----|
|-------------------------------------|
|-------------------------------------|
|-------------------------------------|

Guitar 1
|---------------------------------------|
|---------------------------------------|
|-2-------------------------------------|
|-2-------------------------------------|
|-0-------------------------------------|
|---------------------------------------|
|
|Guitar 2
|--------------------------------------|
|--------------------------------------|
|------9------9------7------7------7h9-|
|-7777---7777---7777---7777---7777-----|
|--------------------------------------|
|--------------------------------------|

Guitar 1
|----------------------------------------|
|----------------------------------------|
|---------------------10-9-7-------------|
|-5--------------------------10-8-7-8-10-|
|-5--------------------------------------|
|-5--------------------------------------|
|
|Guitar 2
|--------------------------------------|
|------10------8------10-8-6-----------|
|-0000----0000---0000--------9-7-6-7-9-|
|--------------------------------------|
|--------------------------------------|
|--------------------------------------|


_________________________________________________________________________


Solo 1 (CKB)
Guitar 1 (Rhythm)
|-------------------------------------------------|
|-------------------------------------------------|
|-------------------------------------------------|
|-------------------------------------------------|
|-------------------------------------------------|
|-0--0--0--2BU(3)--2BU(3)--0--0-0-0---0-0-0-0-0---|

|-------------------------------------------------|
|-------------------------------------------------|
|-------------------------------------------------|
|-------------------------------------------------|
|-------------------------------------0---2---3---|
|-0--0--0--2BU(3)--2BU(3)--0--0-0-0---0---2---3---|


|-------------------------------------------------|
|-------------------------------------------------|
|-------------------------------------------------|
|-------------------------------------------------|
|-------------------------------------------------|
|-3--3--3--5BU(7)--5BU(7)--3--3-3-3---3-3-3-3-3---|

|-------------------------------------------------|
|-------------------------------------------------|
|-------------------------------------------------|
|-------------------------------------------------|
|-------------------------------------6---5---3---|
|-3--3--3--5BU(7)--5BU(7)--3--3-3-3---6---5---3---|

Guitar 2 (Lead)
|-12p9--9-12p9--9-15p12--12-15p12--12-18p15--15-18p15--15-21p18--18-21p18--18-|
|-----11------11-------14--------14--------17--------17--------20--------20---|
|-----------------------------------------------------------------------------|
|-----------------------------------------------------------------------------|
|-----------------------------------------------------------------------------|
|-----------------------------------------------------------------------------|

(Fast pick tapping)
   T     T     T     T     T     T     T     T     T     T     T     T
|-22p21-22p21-22p21-22p21-22p18-22p18-22p18-22p18-22p17-22p17-22p17-22p17-|
|-------------------------------------------------------------------------|
|-------------------------------------------------------------------------|
|-------------------------------------------------------------------------|
|-------------------------------------------------------------------------|
|-------------------------------------------------------------------------|

   T     T     T     T     T     T     T     T     T     T     T     T
|-22p15-22p15-22p15-22p15-------------------------------------------------|
|-------------------------20p15-20p15-20p15-20p15-20p14-20p14-20p14-20p14-|
|-------------------------------------------------------------------------|
|-------------------------------------------------------------------------|
|-------------------------------------------------------------------------|
|-------------------------------------------------------------------------|

   T     T     T     T
|----------------------------------|
|-20p15-20p15-20p15-20p15\10~~~~~~-|
|----------------------------------|
|----------------------------------|
|----------------------------------|
|----------------------------------|

(Standard middle finger tapping)
   T      T      T      T      T       T       T       T
|-------------------------------------------------------------|
|-------------------------------------------------------------|
|-10p9p7-10p9p7-10p9p7-10p9p7-12p10p9-12p10p9-12p10p9-12p10p9-|
|-------------------------------------------------------------|
|-------------------------------------------------------------|
|-------------------------------------------------------------|

   T        T        T        T        T        T        T        T
|-------------------------------------------------------------------------|
|-------------------------------------------------------------------------|
|-14p12p10-14p12p10-14p12p10-14p12p10-15p14p12-15p14p12-15p14p12-15p14p12-|
|-------------------------------------------------------------------------|
|-------------------------------------------------------------------------|
|-------------------------------------------------------------------------|

                                                    NH
|-----------------------------------------------------------|
|-----------------------------------------------------------|
|-14-10--10-14-10--10-12-9--9-12-9--9-10p9p7--9p7p0-5DB-----|
|------12--------12-------11------11------------------------|
|-----------------------------------------------------------|
|-----------------------------------------------------------|


_________________________________________________________________________


Repeat Main Verse

Repeat Pre Chorus

Repeat Chorus

_________________________________________________________________________


Bridge
Guitar 1 (only)
|-----------------------------------------------------------------|
|-----------------------------------------------------------------|
|-----------------------------------------------------------------|
|-----------------------------------------------------------------|
|-------5-----8-------------------------7-----4-------------------|
|-000-0---0-0---0-000-0-0-000-000-000-0---0-0---0-000-0-0-0-0-2-3-|

Guitar 1 (only)
|---------------------------------------------------------|
|---------------------------------------------------------|
|---------------------------------------------------------|
|---------------------------------------------------------|
|-------5-----8-------------------------7-----4-----------|
|-000-0---0-0---0-000-0-0-000-000-000-0---0-0---0-000-0-0-|

Guitar 1
|------------------|
|------------------|
|------------------|
|------------------|
|-8p0h7h8h10-/-12~-|
|------------------|
|
|Guitar 2
|----------------|
|----------------|
|----------------|
|----------------|
|-5p0h4h5h7-/-8~-|
|----------------|

Guitar 1
|-----------------------------------------------------------------|
|-----------------------------------------------------------------|
|-----------------------------------------------------------------|
|-----------------------------------------------------------------|
|-------5-----8-------------------------7-----4-------------------|
|-000-0---0-0---0-000-0-0-000-000-000-0---0-0---0-000-0-0-0-0-2-3-|
|
|Guitar 2
|-----------------------------------------------------------------|
|-----------------------------------------------------------------|
|-----------------------------------------------------------------|
|-----------------------------------------------------------------|
|-------8-----12------------------------11----7-------------------|
|-000-0---0-0---0-000-0-0-000-000-000-0---0-0---0-000-0-0-0-0-2-3-|

Guitar 1
|-----------------------------------------------------------------------|
|-----------------------------------------------------------------------|
|-----------------------------------------------------------------------|
|-----------------------------------------------------------------------|
|-------5-----8-------------------------7-----4-----------5p0h4h5h7-/-8-|
|-000-0---0-0---0-000-0-0-000-000-000-0---0-0---0-000-0-0---------------|
|
|Guitar 2
|-------------------------------------------------------------------------|
|-------------------------------------------------------------------------|
|-------------------------------------------------------------------------|
|-------------------------------------------------------------------------|
|-------8-----12------------------------11----7-----------8p0h7h8h10-/-12-|
|-000-0---0-0---0-000-0-0-000-000-000-0---0-0---0-000-0-0-----------------|


_________________________________________________________________________


Solo 2 (MKH)
Guitar 2 (Rhythm)
||-------------------------------------------------||
|o-------------------------------------------------o|
||-------------------------------------------------|| x4
||-------------------------------------------------||
|o-------------------------------------------------o|
||-0--0--0--2BU(3)--2BU(3)--0--0-0-0---0-0-0-0-0---||

Guitar 1 (Lead)
|-----------------------------------------------------------------------------|
|-11-10--10-11-10-11-10--10-11-10-11-10--10-10-8--8-10-8-10-8--8-10-8-10-8--8-|
|------12--------------12--------------12-------10-----------10-----------10--|
|-----------------------------------------------------------------------------|
|-----------------------------------------------------------------------------|
|-----------------------------------------------------------------------------|

|---------------------------------------------------------------|
|-8-6---6-8-6-8-6---6-8-6-8-6---6-6-5---5-6-5-6-5---5-5h6-------|
|-----9-----------9-----------9-------7-----------7-------6~~~~-|
|---------------------------------------------------------------|
|---------------------------------------------------------------|
|---------------------------------------------------------------|

|-------------------------------------------|
|-11-10--10-11-10-11-10--10-11-10-11-10--10-|
|------12--------------12--------------12---|
|-------------------------------------------|
|-------------------------------------------|
|-------------------------------------------|

|-------------------------------------------|
|-15-14--14-15-14-15-14--14-15-14-15-14--14-|
|------15--------------15--------------15---|
|-------------------------------------------|
|-------------------------------------------|
|-------------------------------------------|

|-------------------------------------------|
|-17-15--15-17-15-17-15--15-17-15-17-15--15-|
|------18--------------18--------------18---|
|-------------------------------------------|
|-------------------------------------------|
|-------------------------------------------|

|----------------------------------------------------13-15-17-13-15-17-|
|-----------------------------------14-15-17-14-15-17------------------|
|------------------12-14-15-12-14-15-----------------------------------|
|-12-14-15-12-14-15----------------------------------------------------|
|----------------------------------------------------------------------|
|----------------------------------------------------------------------|

|-15BU(17)~~~~-|
|--------------|
|--------------|
|--------------|
|--------------|
|--------------|

_________________________________________________________________________


Chorus Variation
Both Guitars
|-----------------------------------------------------------------|
|-----------------------------------------------------------------|
|---------------------------------2-------------------------------|
|-0---------------3---------------2---------------5---------------|
|-0---------------3---------------0---------------5---------------|
|-0---------------3-------------------------------5---------------|

Guitar 1
|------------------------------------------|
|------------------------------------------|
|------------------------------------------|
|-0----------------------------------------|
|-0----------------------------------------|
|-0----------------------------------------|
|
|Guitar 2
|------------------------------------------|
|---------------------10------8------------|
|-7-7--10-7-7--9-7-7-----7-7----7-7--10~~~-|
|------------------------------------------|
|------------------------------------------|
|------------------------------------------|

Guitar 1
|-------------------------------------|
|-------------------------------------|
|-------------------------------------|
|-3-----------------------------------|
|-3-----------------------------------|
|-3-----------------------------------|
|
|Guitar 2
|-------------------------------------|
|------8------6------10---8---6---5h6-|
|-5-5----5-5----5-5-----5---5---5-----|
|-------------------------------------|
|-------------------------------------|
|-------------------------------------|

Guitar 1
|---------------------------------------|
|---------------------------------------|
|-2-------------------------------------|
|-2-------------------------------------|
|-0-------------------------------------|
|---------------------------------------|
|
|Guitar 2
|--------------------------------------|
|--------------------------------------|
|------9------9------7------7------7h9-|
|-7-7----7-7----7-7----7-7----7-7------|
|--------------------------------------|
|--------------------------------------|

Guitar 1
|----------------------------------------|
|----------------------------------------|
|---------------------10-9-7-------------|
|-5--------------------------10-8-7-8-10-|
|-5--------------------------------------|
|-5--------------------------------------|
|
|Guitar 2
|--------------------------------------|
|------10------8------10-8-6-----------|
|-0-0-----0-0----0-0---------9-7-6-7-9-|
|--------------------------------------|
|--------------------------------------|
|--------------------------------------|


_________________________________________________________________________


Repeat Chorus

Repeat Verse 1

_________________________________________________________________________


That's all guys, please rate :)
Tap to rate this tab
# A B C D E F G H I J K L M N O P Q R S T U V W X Y Z