Song name
# A B C D E F G H I J K L M N O P Q R S T U V W X Y Z

Trivium - Wake The End Is Nigh tab

Tabbed by: Connor Ford

Band:  Trivium
Song:  Wake (The End Is Nigh)
Album: Vengeance Falls (2013)


Tuning: Drop C# (C#, G#, C#, F#, A#, D#)
(Tune all strings down half a step then drop tune)



If you're fans of Trivium's early stuff, be sure to check out Shogun
and In Waves on my contributions!

Please rate, comment, correct, anything that will help :)





Hammer on:        h
Pull off:         p
Slide up:         /
Slide down:       \
Bend up:          BU(?)
Tapped note:      T
Vibrato:          ~~~
Pinch Harmonic:   PH
Natural Harmonic: NH
Dive Bomb:        DB
After Muting:     M
Pick slide:       X\\\ ('\' indicated duration)

Guitar 1:        Matt Heafy
Guitar 2:        Corey Beaulieu
Guitar 3:        Corey Beaulieu (Additional harmonies)


________________________________________________________________________________


Melodic Verse 1
Guitar 1 (Clean)
||----------------------------------|
|o----------------------------------|
||---------15--------------10-------|
||---12--12--12--12--12--12--12--12-|
|o----------------------------------|
||-13--13------13--10--10------10---|

|----------------------------------||
|----------------------------------o|
|---------10-----------------------||
|---8---8----8---8---8---8---0---0-||
|----------------------------------o|
|-5---5--------5---5---5---7---8---||

________________________________________________________________________________


Melodic Verse 2
Guitar 1 (Acoustic)
|-----------------------------------------------------------------|
|-----------------------------------------------------------------|
|-2-----2-----2-----2-----0---2---3-----3-----3-----3-----2---3---|
|---0-----0-----0-----0-----0---0---0-----0-----0-----0-----0---0-|
|-----------------------------------------------------------------|
|-----0-----0-----0-----0-------------0-----0-----0-----0---------|

|---------------------------------------------------------------------|
|---------------------------------------------------------------------|
|-5-----5-----5-----5-----5-7-5h7p5---0-----0-----0-----0-----0-------|
|---0-----0-----0-----0-------------8---4-----4-----4-----4-----4---4-|
|---------------------------------------------------------------------|
|-----0-----0-----0-----0-----------------0-----0-----0-----0-----0---|

Guitar 2 (Lead distortion)
||--------------------------------|-------------------------------------||
|o-7~~~~~-8\7\5/7-8~~~~~-10\8\7/8-|-10~~~~~-8-10-10BU(11)(10)-8-7~~~~~-o|
||--------------------------------|-------------------------------------||
||--------------------------------|-------------------------------------||
|o--------------------------------|-------------------------------------o|
||--------------------------------|-------------------------------------||


________________________________________________________________________________


Repeat Melodic Verse 1

________________________________________________________________________________


Verse 1 part 1
Both guitars
|--------|
|--------|
|--------|
|--------|
|-12\----|
|-12\----|

||---------------------------------||
|o---------------------------------o|
||---------------------------------|| x4
||-0-----------0-------------------||
|o-0-----------0---0-M-------------o|
||-0-------0-0-0---0-M-00--0000----||


Verse 1 part 2/chorus

Guitar 1 repeats the open chords while guitar 2 plays:

Guitar 2
|--------------------------------------------------------||
|o-------------------------------------------------------o|
||-12-----11-----8-----15-----12-----11-----8-----11-----||
||-------------------------------------------------------||
|o-10------9-----6-----13-----10------9-----6------9-----o|
||-------------------------------------------------------||


________________________________________________________________________________


Break
Both guitars
|-----------------------------------------------------------------|
|-----------------------------------------------------------------|
|-----------------------------------------------------------------|
|-0---------------------------------------------------------------|
|-0---------------------------------------------------------------|
|-0---------------------------------------------------------------|


________________________________________________________________________________


Verse 2
Both guitars
||-----------------------------------------------------------------|
|o-----------------------------------------------------------------|
||-----------------------------------------------------------------|
||-----------------------------------------------------------------|
|o-------------------------------------------------5p0---7p0---8p0-|
||-0-0-0-0-0-0-0-0-0-0-0-0-0-0-0-0-0-0-0-0-0-0-0-0-----0-----0-----|

|------------------------------------------------------------------||
|------------------------------------------------------------------o|
|------------------------------------------------------------------||
|------------------------------------------------------------------||
|-------------------------------------------------7p0---8p0---10p0-o|
|-0-0-0-0-0-0-0-0-0-0-0-0-0-0-0-0-0-0-0-0-0-0-0-0-----0-----0------||


________________________________________________________________________________


Verse 3
Guitar 1
|-----------------------------------------------------------------|
|-----------------------------------------------------------------|
|-----------------------------------------------------------------|
|-----------------------------------------------------------------|
|-------------------------------------------------5p0---7p0---8p0-|
|-0-0-0-0-----0-0-0-0-----0-0-0-0-----0-0-0-0---------0-----0-----|
|
|Guitar 2 (Each set of notes represents two strums)
|-------------------------------------------------|
|-10-10-10-10-10-10-10-10-10-10-10-10-10-10-10-10-|
|-11-11-11-11-11-11-11-11-11-11-11-11-11-11-11-11-|
|-------------------------------------------------|
|-------------------------------------------------|
|-------------------------------------------------|

Guitar 1
|------------------------------------------------------------------|
|------------------------------------------------------------------|
|------------------------------------------------------------------|
|------------------------------------------------------------------|
|-------------------------------------------------7p0---8p0---10p0-|
|-0-0-0-0-----0-0-0-0-----0-0-0-0-----0-0-0-0---------0-----0------|
|
|Guitar 2
|-------------------------------------------------|
|-11-11-11-11-11-11-11-11-11-11-11-11-11-11-11-11-|
|-11-11-11-11-11-11-11-11-11-11-11-11-11-11-11-11-|
|-------------------------------------------------|
|-------------------------------------------------|
|-------------------------------------------------|

Guitar 1
|-----------------------------------------------------------------|
|-----------------------------------------------------------------|
|-----------------------------------------------------------------|
|-----------------------------------------------------------------|
|-------------------------------------------------5p0---7p0---8p0-|
|-0-0-0-0-----0-0-0-0-----0-0-0-0-----0-0-0-0---------0-----0-----|
|
|Guitar 2
|-------------------------------------------------|
|-13-13-13-13-13-13-13-13-13-13-13-13-13-13-13-13-|
|-11-11-11-11-11-11-11-11-11-11-11-11-11-11-11-11-|
|-------------------------------------------------|
|-------------------------------------------------|
|-------------------------------------------------|

Guitar 1
|------------------------------------------------------------------|
|------------------------------------------------------------------|
|------------------------------------------------------------------|
|------------------------------------------------------------------|
|-------------------------------------------------7p0---8p0---10p0-|
|-0-0-0-0-----0-0-0-0-----0-0-0-0-----0-0-0-0---------0-----0------|
|
|Guitar 2
|------------------------------------------------------------------|
|------------------------------------------------------------------|
|------------------------------------------------------------------|
|------------------------------------------------------------------|
|-------------------------------------------------7p0---8p0---10p0-|
|-0-0-0-0-----0-0-0-0-----0-0-0-0-----0-0-0-0---------0-----0------|


________________________________________________________________________________


Repeat Verse 1 part 2/chorus

Repeat Break

Repeat Verse 2

Repeat Verse 3 after guitar 1 plays the same rhythm and 
Guitar 2 plays an extension of the lead:

Guitar 2 each note is repeatedly
Strummed through each bar
|-------|-------|-------|-------|
|-10----|-11----|-13----|-7-----|
|-11----|-11----|-11----|-7-----|
|-------|-------|-------|-------|
|-------|-------|-------|-------|
|-------|-------|-------|-------|


________________________________________________________________________________


Repeat Break

________________________________________________________________________________
Bridge
Guitar 1
||-----------------------------------------------------------------||
|o-----------------------------------------------------------------o|
||-----------------------------------------------------------------||
||-5---------------3---------------0---------------1---------------||
|o-5---------------3---------------0---------------1---------------o|
||-5---------------3---------------0---------------1---------------||

Guitar 2
||------------------------------------||
|o------------------------------------o|
||------------------------------------||
||-0h5h8-0h5h8-0h8h12-0h7h10-0h7h8h10-||
|o------------------------------------o|
||------------------------------------||


________________________________________________________________________________


Pre-solo verse
Guitar 1
|------------------------------------|
|------------------------------------|
|------------------------------------| x4
|-0h5h8-0h5h8-0h8h12-0h7h10-0h7h8h10-|
|------------------------------------|
|------------------------------------|
|
|Guitar 2
|------------------------------------|
|------------------------------------|
|------------------------------------| x4
|-0h5h8-0h5h8-0h8h12-0h7h10-0h7h8h10-|
|------------------------------------|
|------------------------------------|


________________________________________________________________________________


Solo 1 (CKB)
Guitar 1 (Rhythm)
||-----------------------------------------------------------------|
|o-----------------------------------------------------------------|
||-----------------------------------------------------------------|
||-----------------------------------------------------------------|
|o---------------------------------3-3-3-3-3-3-3-3-3-3-3-3-3-3-3-3-|
||-1-1-1-1-1-1-1-1-1-1-1-1-1-1-1-1---------------------------------|

|-----------------------------------------------------------------||
|-----------------------------------------------------------------o|
|-----------------------------------------------------------------||
|-----------------------------------------------------------------||
|-----------------------------------------------------------------o|
|-5-5-5-5-5-5-5-5-5-5-5-5-5-5-5-5-5-5-5-5-5-5-5-5-5-5-5-5-5-5-5-5-||

Guitar 2 (Lead)
|------------------------------------------------|
|--------------------8-----10-----11-----10-8-10-|
|----------------------8-7----8-7----8-7---------|
|-/5~~~~~~~~~~-8-5-7-----------------------------|
|------------------------------------------------|
|------------------------------------------------|

|---------------11-10h11p10------10-18-17h18p17-----------|
|-11-10------10------------11--11--------------18-20-18---|
|------10--10----------------12------------------------19-|
|--------12-----------------------------------------------|
|---------------------------------------------------------|
|---------------------------------------------------------|

Guitar 2
|----------------------------13-15-17-|
|----------13-15-16-13-15-16----------|
|-12-14-15----------------------------|
|-------------------------------------|
|-------------------------------------|
|-------------------------------------|
|
|Guitar 3
|----------------------------17-18-20-|
|----------16-18-20-16-18-20----------|
|-15-17-19----------------------------|
|-------------------------------------|
|-------------------------------------|
|-------------------------------------|

Guitar 2
||-18-15----15-------17-15----15-------||
|o-------16----16-18-------16----16----o|
||----------------------------------15-||
||-------------------------------------||
|o-------------------------------------o|
||-------------------------------------||
|
|Guitar 3
||-22-18----16-------18-16----16-------||
|o-------20----20-22-------18----18----o|
||----------------------------------17-||
||-------------------------------------||
|o-------------------------------------o|
||-------------------------------------||

Guitar 2
|---------13-15-17-17-15-13-------------------------------------------|
|-13-15-16-----------------16-15-13-16-15-13--------------------------|
|-------------------------------------------15-14-12-15-14-12---------|
|------------------------------------------------------------15-13-12-|
|---------------------------------------------------------------------|
|---------------------------------------------------------------------|

Guitar 2
|----------------------------|
|-/13-11-10------------------|
|-----------12-10----12PH~~~-|
|-----------------12---------|
|----------------------------|
|----------------------------|
|
|Guitar 3
|----------------------------|
|-/16-15-13------------------|
|-----------15-14----15PH~~~-|
|-----------------15---------|
|----------------------------|
|----------------------------|



________________________________________________________________________________


Final Verse
Guitar 2
||-----------------------------------------------------------------|
|o-----------------------------------------------------------------|
||-----------------------------------------------------------------|
||-----------------------------------------------------------------|
|o---------------------------------3-3-3-3-3-3-3-3-3-3-3-3-3-3-3-3-|
||-1-1-1-1-1-1-1-1-1-1-1-1-1-1-1-1---------------------------------|

|-----------------------------------------------------------------||
|-----------------------------------------------------------------o|
|-----------------------------------------------------------------||
|-----------------------------------------------------------------||
|-----------------------------------------------------------------o|
|-5-5-5-5-5-5-5-5-5-5-5-5-5-5-5-5-5-5-5-5-5-5-5-5-5-5-5-5-5-5-5-5-||

Guitar 1 (wah-wah pedal)
|------------------------------------------------------------------|
|------------------------------------------------------------------|
|------------------------------------------------------------------|
|-/5~~~~~~~~~~-7~~-8~~~~~~-7~~~~~~-/5~~~~~~~~~~~~~~~~~~~~~~~~~~~~~-|
|------------------------------------------------------------------|
|------------------------------------------------------------------|

|------------------------------------------------------------------|
|-/8~~~~~~~~~-10~~-10/11~~-13~~~~~-13BU(15)~~~~~~~~~~~~~~~~~~~~~~~-|
|------------------------------------------------------------------|
|------------------------------------------------------------------|
|------------------------------------------------------------------|
|------------------------------------------------------------------|

|------------------------------------------------------------------|
|-/8~~~~~~~~~-10~~-10/11~~-10~~~~~-/8~~~~~~------------------------|
|--------------------------------------------------7~~~~~~-5~~~~~~-|
|---------------------------------------------/5~~-----------------|
|------------------------------------------------------------------|
|------------------------------------------------------------------|

|------------------------------------------------------------------|
|-/8~~~~~~~~~-10~~-10/11~~-10~~~~~-13BU(15)~~~~~~-16BU(18)(16)~~~-|
|------------------------------------------------------------------|
|------------------------------------------------------------------|
|------------------------------------------------------------------|
|------------------------------------------------------------------|

________________________________________________________________________________


Outro solo (MKH)
Guitar 2 (Rhythm)
||-----------------------------------------------------------------|
|o-----------------------------------------------------------------|
||-----------------------------------------------------------------|
||-----------------------------------------------------------------|
|o---------------------------------3-3-3-3-3-3-3-3-3-3-3-3-3-3-3-3-|
||-1-1-1-1-1-1-1-1-1-1-1-1-1-1-1-1---------------------------------|

|-----------------------------------------------------------------||
|-----------------------------------------------------------------o|
|-----------------------------------------------------------------||
|-----------------------------------------------------------------||
|-----------------------------------------------------------------o|
|-5-5-5-5-5-5-5-5-5-5-5-5-5-5-5-5-5-5-5-5-5-5-5-5-5-5-5-5-5-5-5-5-||

Guitar 1 (Lead)
|----------------------------------------------------------------------|
|----------------------------------------------------11-13-15-11-13-15-|
|-----------------------------------10-12-14-10-12-14------------------|
|------------------10-12-13-10-12-13-----------------------------------|
|-10-12-13-10-12-13----------------------------------------------------|
|----------------------------------------------------------------------|

|----------------------------------------------------------------------|
|----------------------------------------------------13-15-16-13-15-16-|
|-----------------------------------12-14-15-12-14-15------------------|
|------------------12-13-15-12-13-15-----------------------------------|
|-12-13-15-12-13-15----------------------------------------------------|
|----------------------------------------------------------------------|

|----------------------------------------------------------------------|
|----------------------------------------------------15-16-18-15-16-18-|
|-----------------------------------14-15-17-14-15-17------------------|
|------------------13-15-17-13-15-17-----------------------------------|
|-13-15-17-13-15-17----------------------------------------------------|
|----------------------------------------------------------------------|

|-13/15~~~~~~-13~~~~~~-| |---------15---------------------|
|----------------------| |-----------18p15----------------|
|----------------------| |-17BU(19)-------17BU(19)--------| x3
|----------------------| |--------------------------------|
|----------------------| |--------------------------------|
|----------------------| |--------------------------------|

|------------------15-17-17BU(18)~~~~~~---20BU(22)---(20)~~~~-|
|-18BU(20)~~~~------------------------------------------------|
|-------------------------------------------------------------|
|-------------------------------------------------------------|
|-------------------------------------------------------------|
|-------------------------------------------------------------|




That's all of it, please rate :)
Tap to rate this tab
# A B C D E F G H I J K L M N O P Q R S T U V W X Y Z