Song name
# A B C D E F G H I J K L M N O P Q R S T U V W X Y Z

Trivium - No Hope For The Human Race tab

Tabbed by: Connor Ford

Band:  Trivium
Song:  No Hope For The Human Race (Bonus)
Album: Vengeance Falls (2013)


Tuning: Drop C# (C#, G#, C#, F#, A#, D#)
(Tune all strings down half a step then drop tune)

As requested by 'asswod' on 02/01/2014

If you're fans of Trivium's early stuff, be sure to check out Shogun
and In Waves on my contributions!

Please rate, comment, correct, anything that will help :)





Hammer on:        h
Pull off:         p
Slide up:         /
Slide down:       \
Bend up:          BU(?)
Tapped note:      T
Vibrato:          ~~~
Pinch Harmonic:   PH
Natural Harmonic: NH
Dive Bomb:        DB\\\
After Muting:     M
Pick slide:       X\\\ ('\' indicated duration)

Guitar 1:        Matthew Kiichi Heafy
Guitar 2:        Corey King Beaulieu
Guitar 3:        Corey King Beaulieu (Additional harmonies)


________________________________________________________________________________


Verse 1
Guitar 1
|------------------------------------------------------------------------|
|------------------------------------------------------------------------|
|------------------------------------------------------------------------|
|-7-------------7-8--------------8-10-------------10-12------12-7--------|
|-5-------------5-5--------------5--7--------------7--8-------8-4--------|
|---000000000000----000000000000-----000000000000-------0000------000000-|
|
|Guitar 2
|------------------------------------------------------------------------|
|------------------------------------------------------------------------|
|------------------------------------------------------------------------|
|-7-------------7-8--------------8-10-------------10-12------12-7--------|
|-5-------------5-5--------------5--7--------------7--8-------8-4--------|
|------------------------------------------------------------------------|

Guitar 1
|------------------------------------------------------------------------|
|------------------------------------------------------------------------|
|------------------------------------------------------------------------|
|-7-------------7-8--------------8-10-------------10-12------12-7--------|
|-5-------------5-5--------------5--7--------------7--8-------8-4--------|
|---000000000000----000000000000-----000000000000-------0000------000000-|
|
|Guitar 2
|-----------------------------------------------------------------|
|-----------------------------------------------------------------|
|-----------------------------------------------------------------|
|-------------7-----5-------------------------8-----7-----5-------|
|-5-----8-----------------8---7---5-----8---------------------8---|
|---0-0---0-0---0-0---0-0---0---0---0-0---0-0---0-0---0-0---0---0-|

Guitar 2 (Conít)
|----------------------------------------------------------------------|
|----------------------------------------------------------------------|
|----------------------------------------------------------------------|
|--------------10-----8-----7---------------------10---------------5---|
|-7-----10----------------------10---8-----12--------------4---7-------|
|---0-0----0-0----0-0---0-0---0----0---0-0----0-0----0-0-0---0---0---0-|

________________________________________________________________________________


Verse 1 Variation
Guitar 1
|-----------------------------------------------------------------|
|-----------------------------------------------------------------|
|-----------------------------------------------------------------|
|-----------------------------------------------------------------|
|-5\----------------5-5-7-8-7-5---5\----------------7-7-8-10-8-7--|
|-----------------------------------------------------------------|
|
|Guitar 2
|-----------------------------------------------------------------|
|-----------------------------------------------------------------|
|-----------------------------------------------------------------|
|-------------7-----5-------------------------8-----7-----5-------|
|/5-----8-----------------8---7---5-----8---------------------8---|
|-----------------------------------------------------------------|

Guitar 1
|----------------------------------------------------------------------|
|----------------------------------------------------------------------|
|-------------------------------------------------9--------------------|
|-----------------------------------/7-----10----------------------8---|
|-7\----------------8-8-10-12-10-8-------------------------7--10-------|
|----------------------------------------------------------------------|
|
|Guitar 2
|----------------------------------------------------------------------|
|----------------------------------------------------------------------|
|----------------------------------------------------------------------|
|--------------10-----8-----7---------------------10---------------5---|
|-7-----10----------------------10--/8-----12--------------4---7-------|
|----------------------------------------------------------------------|



________________________________________________________________________________

Pre verse
Guitar 1 (only)
|---------------------------------------------------|
|---------------------------------------------------|
|---------------------------------------------------|
|---------------------------------------------------|
|-5-----5-----5---4-----4-----4---7h8p7----7--------|
|---0-0---0-0---0---0-0---0-0---0-------11---11-8-7-|

|-----------------------------------------------------------------------|
|-----------------------------------------------------------------------|
|-----------------------------------------------------------------------|
|-----------------------------------------------------------------------|
|-10-----10-----10----------------------4h5p4---4-------5-----3-----2---|
|----8-8----8-8----8-11-8-8-11-8-8-11-8-------8---8-7-5-5-----3-----2---|


________________________________________________________________________________


Verse 2
Both guitars
|---------------------------------------------------|
|---------------------------------------------------|
|---------------------------------------------------|
|---------------------------------------------------|
|-5-----5-----5---4-----4-----4---7h8p7----7--------|
|---0-0---0-0---0---0-0---0-0---0-------11---11-8-7-|

|-----------------------------------------------------------------------|
|-----------------------------------------------------------------------|
|-----------------------------------------------------------------------|
|-----------------------------------------------------------------------|
|-10-----10-----10----------------------4h5p4---4-----------------------|
|----8-8----8-8----8-11-8-8-11-8-8-11-8-------8---8-7-5-5-p-0h3-p-0h2---|

|---------------------------------------------------|
|---------------------------------------------------|
|---------------------------------------------------|
|---------------------------------------------------|
|-5-----5-----5---4-----4-----4---7h8p7----7--------|
|---0-0---0-0---0---0-0---0-0---0-------11---11-8-7-|

|-----------------------------------------------------------------------|
|-----------------------------------------------------------------------|
|-----------------------------------------------------------------------|
|-----------------------------------------------------------------------|
|-10-----10-----10----------------------4h5p4---4-------5-----3-----2---|
|----8-8----8-8----8-11-8-8-11-8-8-11-8-------8---8-7-5-5-----3-----2---|

________________________________________________________________________________


Repeat Verse 1

________________________________________________________________________________


Chorus
Both guitars
|-----------------------------------------------------------------|
|-----------------------------------------------------------------|
|-------------------------------------------------6-6-6-6-6-6-6-6-|
|-8-8-8-8-8-8-8-8-8-8-8-8-8-8-8-8-8-8-8-8-8-8-8-8-7-7-7-7-7-7-7-7-|
|-8-8-8-8-8-8-8-8-8-8-8-8-8-8-8-8-8-8-8-8-8-8-8-8-4-4-4-4-4-4-4-4-|
|-8-8-8-8-8-8-8-8-8-8-8-8-8-8-8-8-8-8-8-8-8-8-8-8-----------------|

Guitar 1
||----------------------------------------------------------------------||
|o----------------------------------------------------------------------o|
||----------------------------------------------------------------------||
||-0--------------------------------------8-7-5-------------------------||
|o-0-------/7---5-----------/10---8-------------8-7-5-0h7h10---0h8h12---o|
||-0-----0--------------0-0---------------------------------------------||
|
|Guitar 2
||----------------------------------------------------------------------------||
|o----------------------------------------------------------------------------o|
||----------------------------------------------------------------------------||
||-0------------------------/8---7--------12-10-8-----------------------------||
|o-0-------/10---8--------------------------------12-10-8-0h10h13---0h12h15---o|
||-0-----0--------------0-0---------------------------------------------------||

Booth guitars
|-----------------------------------------------------------------|
|-----------------------------------------------------------------|
|-------------------------------------------------6-6-6-6-6-6-6-6-|
|-8-8-8-8-8-8-8-8-8-8-8-8-8-8-8-8-8-8-8-8-8-8-8-8-7-7-7-7-7-7-7-7-|
|-8-8-8-8-8-8-8-8-8-8-8-8-8-8-8-8-8-8-8-8-8-8-8-8-4-4-4-4-4-4-4-4-|
|-8-8-8-8-8-8-8-8-8-8-8-8-8-8-8-8-8-8-8-8-8-8-8-8-----------------|


________________________________________________________________________________


Repeat Pre Verse

Repeat Verse 2

Repeat Verse 1

Repeat Chorus

________________________________________________________________________________


Breakdown
Both guitars
|-----------------------------------------------------------------|
|-----------------------------------------------------------------|
|-----------------------------------------------------------------|
|-----------------------------------------------------------------|
|---------------------------------------------------------4-4-4-4-|
|-0-000-0-000-0-000-0-000-0-0-0-0-0-000-0-000-0-000-0-000-2-2-2-2-|

|-----------------------------------------------------------------|
|-----------------------------------------------------------------|
|-----------------------------------------------------------------|
|-----------------------------------------------------------------|
|-----------------------------------------------------------------|
|-0-000-0-000-0-000-0-000-0-0-0-000-0-000-0-000-0-8-7-5h7-2~~~~~~-|

|-----------------------------------------------------------------|
|-----------------------------------------------------------------|
|-----------------------------------------------------------------|
|-----------------------------------------------------------------|
|-----------------------------------------------------------------|
|-0-000-0-000-0-000-0-000-0-0-0-0-0-000-0-000-0-0-8-7-5-7-2-2-2-2-|

|-----------------------------------------------------------------|
|-----------------------------------------------------------------|
|-----------------------------------------------------------------|
|-----------------------------------------------------------------|
|-----------------------------------------------------------------|
|-0-000-0-000-0-000-0-000-0-0-0-000-0-000-0-000-0-8-7-5h7-2~~~~~~-|

|-----------------------------------------------------------------|
|-----------------------------------------------------------------|
|-----------------------------------------------------------------|
|-------------------------------3-----------------6-----6-5-----5-|
|-----------------------------4---------------------4-------3-----|
|-3-333-3-333-3-333-3-333-3h6-----3-333-3-333-3-3-----3-------2---|

|-----------------------------------------------------------------|
|-----------------------------------------------------------------|
|-----------------------------------------------------------------|
|-------------------------------3---------------------------------|
|-----------------------------4-------------------5--5--5-2--2--2-|
|-3-333-3-333-3-333-3-333-3h6-----3-333-3-333-3-3-5--5--5-2--2--2-|

	
________________________________________________________________________________

Solo (CKB)
Guitar 1 (Rhythm)
|-----------------------------------------------------------------|
|-----------------------------------------------------------------|
|-----------------------------------------------------------------|
|-----------------------------------------------------------------|
|-----------------------------------------------------------------|
|-0-000-0-000-0-000-0-000-0-0-0-0-0-000-0-000-0-000-0-000-0-000-0-|

|------------------------------------------------------------------|
|------------------------------------------------------------------|
|------------------------------------------------------------------|
|------------------------------------------------------------------|
|------------------------------------------------------------------|
|-0-000-0-000-0-000-0-000-0-0-0-000-0-000-0-000-0-000-0-000-2BU(3)-|

|-----------------------------------------------------------------|
|-----------------------------------------------------------------|
|-----------------------------------------------------------------|
|-----------------------------------------------------------------|
|-----------------------------------------------------------------|
|-3-333-3-333-3-333-3-333-3-3-3-3-3-333-3-333-3-333-3-333-3-333-3-|

|------------------------------------------------------------------|
|------------------------------------------------------------------|
|------------------------------------------------------------------|
|------------------------------------------------------------------|
|------------------------------------------------------------------|
|-3-333-3-333-3-333-3-333-3-3-3-333-3-333-3-333-3-333-3-333-2BU(3)-|

|---------------------------------------------------|
|---------------------------------------------------|
|---------------------------------------------------|
|---------------------------------------------------|
|-5-----5-----5---4-----4-----4---7h8p7----7--------|
|---0-0---0-0---0---0-0---0-0---0-------11---11-8-7-|

Guitar 2 (Lead)
That is a 3.2 natural harmonic
Itís not quite 3, itís just past the fret wire

|-------------------------------------------------|
|-------------------------------------------------|
|-3.2NH-DB\\\--------------------------/14~~~~~~~-|
|-------------------------------------------------|
|-------------------------------------------------|
|-------------------------------------------------|

|----------------------------------------------18-17-15-------------------|
|----------------------------14-15-17-15-17-18----------18-17-15-17-15-14-|
|----------12-14-15-12-14-15----------------------------------------------|
|-12-14-15----------------------------------------------------------------|
|-------------------------------------------------------------------------|
|-------------------------------------------------------------------------|

Guitar 2
|----------------------------------------------------------------------------|
|-15-------15---15/17-14-------14---14h15-10-------11-------9-------10-------|
|----------------------------------------------------------------------------|
|----------------------------------------------------------------------------|
|----------------------------------------------------------------------------|
|----------------------------------------------------------------------------|
|
|Guitar 3
|----------------------------------------------------------------------------|
|----------------------------------------------------------------------------|
|----------------------------------------------------------------------------|
|-12-------12---12/14-11-------11---11h12--7--------8-------6--------7-------|
|----------------------------------------------------------------------------|
|----------------------------------------------------------------------------|

Guitar 2
|---------------10-13-12h13p12p10----10-------------|
|----------9-12-------------------13----13-12-10-13-|
|-------10------------------------------------------|
|---6-9---------------------------------------------|
|-8-------------------------------------------------|
|---------------------------------------------------|

|------------------------------------------|
|-10---10h12p10\9---9h10p9\6---\5-5PH~~~---|
|------------------------------------------|
|------------------------------------------|
|------------------------------------------|
|------------------------------------------|

|-----------------------------------------------------|
|---------------------------------------------9-10-12-|
|-------------------------------7-9-10-7-9-10---------|
|-------------------6-7-9-6-7-9-----------------------|
|-------5-7-8-5-7-8-----------------------------------|
|-6-7-9-----------------------------------------------|

|-13-12-10-12-15-13-12-13-17-15-13-15-18-17-15-17-20-18-17-18-22-20-18-20-|
|-------------------------------------------------------------------------|
|-------------------------------------------------------------------------|
|-------------------------------------------------------------------------|
|-------------------------------------------------------------------------|
|-------------------------------------------------------------------------|

|-22-20-18----------20BU(22)~~~~~-|
|----------22-20-18---------------|
|---------------------------------|
|---------------------------------|
|---------------------------------|
|---------------------------------|


________________________________________________________________________________


Repeat Chorus

________________________________________________________________________________


Finish on
Both guitars
|-----------------------------------------------------------------|
|-----------------------------------------------------------------|
|-------------------------------------------------6-6-6-6---------|
|-8-8-8-8-8-8-8-8-8-8-8-8-8-8-8-8-8-8-8-8-8-8-8-8-7-7-7-7---------|
|-8-8-8-8-8-8-8-8-8-8-8-8-8-8-8-8-8-8-8-8-8-8-8-8-4-4-4-4-8-7-5-4-|
|-8-8-8-8-8-8-8-8-8-8-8-8-8-8-8-8-8-8-8-8-8-8-8-8-----------------|

________________________________________________________________________________


That's all of it, please rate :)
Tap to rate this tab
# A B C D E F G H I J K L M N O P Q R S T U V W X Y Z