Song name
# A B C D E F G H I J K L M N O P Q R S T U V W X Y Z

Trivium - Suffocating Sight tab

Help us improve GuitareTab! Take a short survey!
#----------------------------------PLEASE NOTE---------------------------------#
#This file is the author's own work and represents their interpretation of the #
#song. You may only use this file for private study, scholarship, or research. #
#------------------------------------------------------------------------------##

                                SUFFOCATING SIGHT
                             As recorded by Trivium
                        (From the 2005 Album ASCENDANCY)

Words and Music by Matthew.K Heafy
Arranged by Matthew.K Heafy
Transcribed by dandyhandy17

Gtr I (D A D G B E) - 'Untitled'
Gtr II (D A D G B E) - 'Untitled'

   Intro
    Q=110
   4/4
    Gtrs I, II
    S S S S E S S S S S S E S S   S S S S E S S S S S S E S S
||------------------------------|-----------------------------|
||o-----------------------------|-----------------------------|
||------------------------------|-----------------------------|
||--8-8-8-8---8-8-7-7-7-7---7-7-|-5-5-5-5---5-5-7-7-7-7---7-7-|
||o-5-5-5-5---5-5-5-5-5-5---5-5-|-5-5-5-5---5-5-5-5-5-5---5-5-|
||--5-5-5-5---5-5-5-5-5-5---5-5-|-5-5-5-5---5-5-5-5-5-5---5-5-|


  S S S S +S  S S S S S S S +S  S S S   S S S S +S  S S S S S S S +S  S S S
|-------------------------------------|--------------------------------------||
|-------------------------------------|-------------------------------------o||
|-------------------------------------|--------------------------------------||
|-7-7-7-7-(7)-7-7-7-5-5-5-5-(5)-5-5-5-|-8-8-8-8-(8)-8-8-8-7-7-7-7-(7)-7-7-7--||
|-5-5-5-5-(5)-5-5-5-5-5-5-5-(5)-5-5-5-|-5-5-5-5-(5)-5-5-5-5-5-5-5-(5)-5-5-5-o||
|-0-0-0-0-(0)-0-0-0-0-0-0-0-(0)-0-0-0-|-0-0-0-0-(0)-0-0-0-0-0-0-0-(0)-0-0-0--||


 Pre-Verse
  Q=226
  Gtr I
  PM--------|           PM--------|
  S S E S S E E E E E   S S E S S E E E E E
|---------------------|---------------------|
|---------------------|---------------------|
|---------------------|---------------------|
|-----------------8---|-----------------7---|
|-------------5h6---6-|-------------5h6---6-|
|-5-5-5-5-5-5---------|-5-5-5-5-5-5---------|


    PM----|   PM------|      PM----|    PM----|
  E E S S E E E S S S S    E S S S S  E S S S S  Q
|-----------------------|---------------------------|
|-----------------------|---------------------------|
|-----------------------|---------------------------|
|-5---------7-----------|-12---------10-------------|
|---5-5-5-5---6-6-6-6-6-|----9-9-9-9----9-9-9-9-13--|
|-----------------------|---------------------------|


  PM--------|           PM--------|
  S S E S S E E E E E   S S E S S E E E E E
|---------------------|---------------------|
|---------------------|---------------------|
|---------------------|---------------------|
|-----------------8---|-----------------7---|
|-------------5h6---6-|-------------5h6---6-|
|-5-5-5-5-5-5---------|-5-5-5-5-5-5---------|
|
| Gtr II
| PM--------|           PM--------|
| S S E S S E H         S S E S S E H
|---------------------|---------------------|
|---------------------|---------------------|
|---------------------|---------------------|
|---------------------|---------------------|
|-5-5-5-5-5-5---------|-5-5-5-5-5-5---------|
|-5-5-5-5-5-5---------|-5-5-5-5-5-5---------|


    PM----|   PM------|       PM----|    PM----|
  E E S S E E E S S S S    E  S S S S  E S S S S  Q
|-----------------------|----------------------------|
|-----------------------|----------------------------|
|-----------------------|----------------------------|
|-5---------7-----------|-12----------10-------------|
|---5-5-5-5---6-6-6-6-6-|-----9-9-9-9----9-9-9-9-13--|
|-----------------------|----------------------------|
|
| W                       +W
|-----------------------|----------------------------|
|-----------------------|----------------------------|
|-----------------------|----------------------------|
|-0---------------------|-(0)------------------------|
|-0---------------------|-(0)------------------------|
|-0---------------------|-(0)------------------------|


    PM--------|           PM--------|
    S S E S S E E E E E   S S E S S E E E E E
||----------------------|---------------------|
||o---------------------|---------------------|
||----------------------|---------------------|
||------------------8---|-----------------7---|
||o-------------5h6---6-|-------------5h6---6-|
||--5-5-5-5-5-5---------|-5-5-5-5-5-5---------|
|
|   PM--------|           PM--------|
|   S S E S S E E E E E   S S E S S E E E E E
||----------------------|---------------------|
||o---------------------|---------------------|
||----------------------|---------------------|
||------------------8---|-----------------7---|
||o-------------5h6---6-|-------------5h6---6-|
||--5-5-5-5-5-5---------|-5-5-5-5-5-5---------|


    PM----|   PM------|      PM----|    PM----|
  E E S S E E E S S S S    E S S S S  E S S S S  Q
|-----------------------|---------------------------||
|-----------------------|--------------------------o||
|-----------------------|---------------------------||
|-5---------7-----------|-12---------10-------------||
|---5-5-5-5---6-6-6-6-6-|----9-9-9-9----9-9-9-9-13-o||
|-----------------------|---------------------------||
|
|   PM----|   PM------|      PM----|    PM----|
| E E S S E E E S S S S    E S S S S  E S S S S  Q
|-----------------------|---------------------------||
|-----------------------|--------------------------o||
|-----------------------|---------------------------||
|-5---------7-----------|-12---------10-------------||
|---5-5-5-5---6-6-6-6-6-|----9-9-9-9----9-9-9-9-13-o||
|-----------------------|---------------------------||


   Verse
    Gtrs I, II
    PM--------|           PM--------|
    S S E S S E E E E E   S S E S S E E E E E
||----------------------|---------------------|
||o---------------------|---------------------|
||----------------------|---------------------|
||------------------8---|-----------------7---|
||o-------------5h6---6-|-------------5h6---6-|
||--5-5-5-5-5-5---------|-5-5-5-5-5-5---------|


    PM----|   PM------|      PM----|    PM----|
  E E S S E E E S S S S    E S S S S  E S S S S  Q
|-----------------------|---------------------------||
|-----------------------|--------------------------o||
|-----------------------|---------------------------||
|-5---------7-----------|-12---------10-------------||
|---5-5-5-5---6-6-6-6-6-|----9-9-9-9----9-9-9-9-13-o||
|-----------------------|---------------------------||


   Pre-Chorus
      PM------------|         PM------------|
    E E S S E E S S E E   +E  E S S E E S S E E
||----------------------|-----------------------|
||o---------------------|-----------------------|
||----------------------|-----------------------|
||--7-----------------7-|-(7)-----------------8-|
||o-5-5-5-5-5-5-5-5-5-4-|-(4)-4-4-4-4-4-4-4-4-6-|
||----------------------|-----------------------|


      PM------------|         PM----|   PM----|
  +E  E S S E E S S E E   +E  E S S E E E S S E
|-----------------------|--------------------------||
|-----------------------|-------------------------o||
|-----------------------|--------------------------||
|-(8)-----------------7-|-(7)---------7------------||
|-(6)-6-6-6-6-6-6-6-6-8-|-(8)-8-8-8-8-9-9-9-9-9---o||
|-----------------------|--------------------------||


    W          W          W          H    H
||-----------|----------|----------|----------||
||o----------|----------|----------|---------o||
||-----------|----------|----------|----------||
||--5--------|-7--------|-8--------|-7----7---||
||o-5--------|-4--------|-6--------|-8----9--o||
||-----------|----------|----------|----------||


  Gtr II
   E  S  S  E  E  S  S  E  S  S  E    E  S  S  E  E  S  S  E  S  S  E
|----------------------------------|----------------------------------||
|----------------------------------|----------------------------------||
|----------------------------------|----------------------------------||
|----------------------------------|----------------------------------||
|-10-10-10-10-10-10-10-10-10-10-10-|-10-10-10-10-10-10-10-10-10-10-10-||
|----------------------------------|----------------------------------||


   Chorus
    Gtr I
      H    Q  Q    H.      E E   Q.    Q.   Q    H     H
||---------------|-------------|---------------|----------|
||o--------------|-------------|---------------|----------|
||---------7-----|-------------|-7-------------|----------|
||------------8--|-7-------7h8-|------10----8--|-7----10--|
||o-/10----------|-------------|---------------|----------|
||---------------|-------------|---------------|----------|
|
|   Gtr II
|     W            W             W               W
||---------------|-------------|---------------|----------|
||o--------------|-------------|---------------|----------|
||---------------|-------------|---------------|----------|
||----5----------|-0-----------|-1-------------|-3--------|
||o---5----------|-0-----------|-1-------------|-3--------|
||----5----------|-0-----------|-1-------------|-3--------|


                                         |-3-|
    H    Q  Q    H.      E E    Q.   Q.  E E E   H    Q   Q
|--------------|-------------|-----------------|-------------||
|--------------|-------------|-----------------|------------o||
|--------7-----|-------------|-10----8---7h8p7-|-------------||
|-----------8--|-7-------7h8-|-----------------|-8----7------||
|-/10----------|-------------|-----------------|---------10-o||
|--------------|-------------|-----------------|-------------||
|
|   W            W              W                W
|--------------|-------------|-----------------|-------------||
|--------------|-------------|-----------------|------------o||
|--------------|-------------|-----------------|-------------||
|---5----------|-0-----------|--1--------------|-3-----------||
|---5----------|-0-----------|--1--------------|-3----------o||
|---5----------|-0-----------|--1--------------|-3-----------||


 Breakdown
  Q=160
  Gtrs I, II
  H    H      H    H
|-----------|--------|
|-----------|--------|
|-----------|--------|
|-5----4----|-1----0-|
|-5----4----|-1----0-|
|-5----4----|-1----0-|


    PM--|   PM--|   PM--|   PM--|     PM--|   PM--|   PM--|   PM--|
    S S S S S S S S S S S S S S S S   S S S S S S S S S S S S S S S S
||----------------------------------|---------------------------------|
||o---------------------------------|---------------------------------|
||----------------------------------|---------------------------------|
||----------------------------------|---------------------------------|
||o-5-5-5---5-5-5---5-5-5---5-5-5---|-5-5-5---5-5-5---5-5-5---5-5-5---|
||--5-5-5---5-5-5---5-5-5---5-5-5---|-5-5-5---5-5-5---5-5-5---5-5-5---|


  |-3-| |-3-|   |-3-| |-3-|
  Q Q Q Q Q Q   Q Q Q Q Q Q  4x
|-------------|--------------||
|-------------|-------------o||
|-------------|--------------||
|-------------|--------------||
|-4-4-4-4-4-4-|-4-4-4-4-4-4-o||
|-4-4-4-4-4-4-|-4-4-4-4-4-4--||


   Bridge
    Gtr I
    PM|   PM|   PM               PM|   PM|   PM
    S S S S S S E    E E E   E   S S S S S S E    E E E   E
||-----------------------------|--------------------------------|
||o----------------------------|--------------------------------|
||-----------------------------|--------------------------------|
||-----------------------8-----|----------------------7---------|
||o-5-5---5-5--------5-6-----6-|-5-5---5-5--------5-6-----6-----|
||--5-5---5-5---5--------------|-5-5---5-5---5------------------|
|
|   Gtr II
|   PM|   PM|                    PM|   PM|
|   S S S S E     Q.       Q     S S S S E     Q.       S   E.
||-----------------------------|--------------------------------|
||o----------------------------|--------------------------------|
||-----------------------------|--------------------------------|
||-----------------------------|--------------------------------|
||o-5-5---5-5------------------|-5-5---5-5--------------5S==8---|
||--5-5---5-5------------------|-5-5---5-5--------------5S==8---|


      PM--------|    PM--------|      PM------|    PM------|
  E   S S S S S S  E S S S S S S    S S S S S S  S S S S S S  Q
|--------------------------------|------------------------------------||
|--------------------------------|-----------------------------------o||
|--------------------------------|------------------------------------||
|-5----------------7-------------|-12-----------10-----------[8]------||
|-----5-5-5-5-5-5----6-6-6-6-6-6-|--9-9-9-9-9-9--9-9-9-9-9-9---------o||
|--------------------------------|------------------------------------||
|
| PM|   PM|
| S S S S E     Q.         Q        S S S S E    E   S S S S  E  E
|--------------------------------|------------------------------------||
|--------------------------------|-----------------------------------o||
|--------------------------------|------------------------------------||
|--------------------------------|------------------------------------||
|-0-0---0-0----------------------|--1-1---1-1--------4-4---4--4------o||
|-0-0---0-0----------------------|--1-1---1-1--------4-4---4--4-------||


    PM|   PM|           PM|   PM|
    S S S S E Q.   Q    S S S S E Q.   S E.
||--------------------|---------------------|
||o-------------------|---------------------|
||--------------------|---------------------|
||--------------------|---------------------|
||o-5-5---5-5---------|-5-5---5-5------5S8--|
||--5-5---5-5---------|-5-5---5-5------5S8--|
|
|   PM|   PM|           PM|   PM|
|   S S S S E Q.   Q    S S S S E Q.   S E.
||--------------------|---------------------|
||o-------------------|---------------------|
||--------------------|---------------------|
||--------------------|---------------------|
||o-5-5---5-5---------|-5-5---5-5------5S8--|
||--5-5---5-5---------|-5-5---5-5------5S8--|


  PM|   PM|
  S S S S E Q.   Q    S S S S E E S S S S E E
|-------------------|--------------------------||
|-------------------|-------------------------o||
|-------------------|--------------------------||
|-------------------|--------------------------||
|-0-0---0-0---------|-1-1---1-1---4-4---4-4---o||
|-0-0---0-0---------|-1-1---1-1---4-4---4-4----||
|
| PM|   PM|
| S S S S E Q.   Q    S S S S E E S S S S E E
|-------------------|--------------------------||
|-------------------|-------------------------o||
|-------------------|--------------------------||
|-------------------|--------------------------||
|-0-0---0-0---------|-1-1---1-1---4-4---4-4---o||
|-0-0---0-0---------|-1-1---1-1---4-4---4-4----||


 Guitar Solo
                                                                       ~~~
    Q  Q  Q   Q    Q  Q  Q  Q    Q  +Q     +H         Q       +E  S S +H
|----------------|-------------|-------------------|------------------------|
|----------------|-------------|-------------------|-10b11===(10)r8p7-(7)---|
|----------------|-8--7--5-----|-------------------|------------------------|
|------7--8--10--|----------8--|-7--(7)b8r=(7)-----|------------------------|
|-/10------------|-------------|-------------------|------------------------|
|----------------|-------------|-------------------|------------------------|
|
|   TP TP TP  TP   TP TP TP TP   TP  TP     TP  TP    TP       TP   TP    TP
|   Q  Q  Q   Q    Q  Q  Q  Q    Q   Q      Q   Q     Q        Q    Q     Q
|----------------|-------------|-------------------|------------------------|
|----------------|-------------|-------------------|------------------------|
|----------------|-------------|-------------------|------------------------|
|----------------|-------------|-------------------|------------------------|
|----------------|-------------|-------------------|------------------------|
|---5--5--5---5--|-5--5--7--8--|-4---4------4---4--|--1--------1----4-----4-|


  S  S  S S  S S  S S  S  S  S  S  S  S  S  S
|---------8-10-8----8-13-11-10-11----10-11-13S|
|-8-10-11--------11---------------13----------|
|---------------------------------------------|
|---------------------------------------------|
|---------------------------------------------|
|---------------------------------------------|
|
| TP         TP        TP          TP
| Q          Q         Q           Q
|---------------------------------------------|
|---------------------------------------------|
|---------------------------------------------|
|---------------------------------------------|
|---------------------------------------------|
|-5----------5---------5-----------5----------|


                                             |--3--|
   S  S  S  S  S  S  S  S  S  S  S  S  S  S  S  S  S
|-15-13-11-13----11-13-15S18-17-15-------------------|
|-------------15-------------------18-16-15----------|
|-------------------------------------------17-15-14-|
|----------------------------------------------------|
|----------------------------------------------------|
|----------------------------------------------------|
|
|  TP          TP          TP          TP
|  Q           Q           Q           Q
|----------------------------------------------------|
|----------------------------------------------------|
|----------------------------------------------------|
|----------------------------------------------------|
|----------------------------------------------------|
|--5-----------5-----------7-----------8-------------|


   Q       Q   Q   Q     Q   Q   Q   Q
|-17pb18--17--15------|-------------14-||
|-----------------16--|-15-------------||
|---------------------|-----15--14-----||
|---------------------|----------------||
|---------------------|----------------||
|---------------------|----------------||
|
|  TP      TP  TP  TP    TP  TP  TP  TP
|  Q       Q   Q   Q     Q   Q   Q   Q
|---------------------|----------------||
|---------------------|----------------||
|---------------------|----------------||
|---------------------|----------------||
|---------------------|----------------||
|--4-------4---4---4--|--1---1---4---4-||


 Break
  Q=226
   H            H               W
|-18\-------------------|---------------------|
|-----------------------|---------------------|
|-----------------------|---------------------|
|-----------------------|---------------------|
|-----------------------|---------------------|
|-----------------------|---------------------|
|
|  PM---------|           PM--------|
|  S  S E S S E E E E E   S S E S S E E E E E
|-----------------------|---------------------|
|-----------------------|---------------------|
|-----------------------|---------------------|
|-------------------8---|-----------------7---|
|---------------5h6---6-|-------------5h6---6-|
|--5--5-5-5-5-5---------|-5-5-5-5-5-5---------|


            W                         W
|-----------------------|---------------------------|
|-----------------------|---------------------------|
|-----------------------|---------------------------|
|-----------------------|---------------------------|
|-----------------------|---------------------------|
|-----------------------|---------------------------|
|
|   PM----|   PM------|      PM----|    PM----|
| E E S S E E E S S S S    E S S S S  E S S S S  Q
|-----------------------|---------------------------|
|-----------------------|---------------------------|
|-----------------------|---------------------------|
|-5---------7-----------|-12---------10-------------|
|---5-5-5-5---6-6-6-6-6-|----9-9-9-9----9-9-9-9-13--|
|-----------------------|---------------------------|


  PM--------|           PM--------|
  S S E S S E E E E E   S S E S S E E E E E   E H.      E    W
|---------------------|---------------------|--------------|------||
|---------------------|---------------------|--------------|------||
|---------------------|---------------------|--------------|------||
|-----------------8---|-----------------7---|-0------------|------||
|-------------5h6---6-|-------------5h6---6-|-0------------|------||
|-5-5-5-5-5-5---------|-5-5-5-5-5-5---------|-0------------|------||
|
| PM--------|           PM--------|
| S S E S S E E E E E   S S E S S E E E E E   E H.      E    W
|---------------------|---------------------|--------------|------||
|---------------------|---------------------|--------------|------||
|---------------------|---------------------|--------------|------||
|-----------------8---|-----------------7---|-0------------|------||
|-------------5h6---6-|-------------5h6---6-|-0------------|------||
|-5-5-5-5-5-5---------|-5-5-5-5-5-5---------|-0------------|------||


 Out-Chorus
  W          W          W          W
|----------|----------|----------|------|
|----------|----------|----------|------|
|----------|----------|----------|------|
|-5--------|-0--------|-1--------|-0----|
|-5--------|-0--------|-1--------|-0----|
|-5--------|-0--------|-1--------|-0----|
|
| W          W          W          W
|----------|----------|----------|------|
|----------|----------|----------|------|
|----------|----------|----------|------|
|-5--------|-0--------|-1--------|-0----|
|-5--------|-0--------|-1--------|-0----|
|-5--------|-0--------|-1--------|-0----|


  W          W          W          W
|----------|----------|----------|------||
|----------|----------|----------|------||
|----------|----------|----------|------||
|-5--------|-0--------|-1--------|------||
|-5--------|-0--------|-1--------|------||
|-5--------|-0--------|-1--------|------||
|
| W          W          W          W
|----------|----------|----------|------||
|----------|----------|----------|------||
|----------|----------|----------|------||
|-5--------|-0--------|-1--------|------||
|-5--------|-0--------|-1--------|------||
|-5--------|-0--------|-1--------|------||


   Key Change Chorus
      H    Q   Q    H.      E  E   Q.   Q.   Q     H     H
||----------------|--------------|---------------|-----------|
||o---------------|--------------|---------------|-----------|
||---------9------|--------------|-9-------------|-----------|
||------------10--|-9-------9h10-|-----12---10---|-9----12---|
||o-/12-----------|--------------|---------------|-----------|
||----------------|--------------|---------------|-----------|
|
|     W             W              W               W
||----------------|--------------|---------------|-----------|
||o---------------|--------------|---------------|-----------|
||----------------|--------------|---------------|-----------|
||----7-----------|-2------------|-3-------------|-5---------|
||o---7-----------|-2------------|-3-------------|-5---------|
||----7-----------|-2------------|-3-------------|-5---------|


                                             |-3--|
    H    Q   Q    H.      E  E    Q.    Q.   E  E E   Q.    Q.    Q   4x
|---------------|--------------|--------------------|-----------------||
|---------------|--------------|--------------------|----------------o||
|--------9------|--------------|-12----10----9h10p9-|-9---------------||
|-----------10--|-9-------9h10-|--------------------|------10----12---||
|-/12-----------|--------------|--------------------|----------------o||
|---------------|--------------|--------------------|-----------------||
|
|   W             W               W                   W               4x
|---------------|--------------|--------------------|-----------------||
|---------------|--------------|--------------------|----------------o||
|---------------|--------------|--------------------|-----------------||
|---7-----------|-2------------|--3-----------------|-5---------------||
|---7-----------|-2------------|--3-----------------|-5--------------o||
|---7-----------|-2------------|--3-----------------|-5---------------||


 End
  Gtrs I, II
  W
|-------*|
|-------*|
|-------*|
|-7\----*|
|-7-----*|
|-7-----*|


Duration Legend
---------------
W - whole; H - half; Q - quarter; E - 8th; S - 16th; T - 32nd; X - 64th; a - acciaccatura
+ - note tied to previous; . - note dotted; .. - note double dotted
Uncapitalized letters represent notes that are staccato (1/2 duration)
Irregular groupings are notated above the duration line
Duration letters will always appear directly above the note/fret number it represents the
duration for.  Duration letters with no fret number below them represent rests.  Multi-
bar rests are notated in the form Wxn, where n is the number of bars to rest for.  Low
melody durations appear below the staff

Tablature Legend
----------------
 h   - hammer-on
 p   - pull-off
 b   - bend
 pb  - pre-bend
 r   - bend release (if no number after the r, then release immediately)
 /\  - slide into or out of (from/to "nowhere")
 s   - legato slide
 S   - shift slide
  - natural harmonic
[n]  - artificial harmonic
n(n) - tapped harmonic
 ~   - vibrato
 tr  - trill
 T   - tap
 TP  - trem. picking
 PM  - palm muting
\n/  - tremolo bar dip; n = amount to dip
 \n  - tremolo bar down
 n/  - tremolo bar up
/n\  - tremolo bar inverted dip
 =   - hold bend; also acts as connecting device for hammers/pulls
 <>  - volume swell (louder/softer)
 x   - on rhythm slash represents muted slash
 o   - on rhythm slash represents single note slash

Misc Legend
-----------
 |  - bar
||  - double bar
||o - repeat start
o|| - repeat end
*|  - double bar (ending)
 :  - bar (freetime)
 $  - Segno
 &  - Coda
Tempo markers -  = BPM(8/16=s8/s16), where s8 = swing 8ths, s16 = swing 16ths


***************************************************************************************
* Generated using Power Tab Editor by Brad Larsen - http://powertab.guitarnetwork.org *
***************************************************************************************
Related for Suffocating Sight tab