Song name
# A B C D E F G H I J K L M N O P Q R S T U V W X Y Z

Trivium - Killer Death tab

   intro and outro
 E||-----------------------------|-----------------------------------||
 B||-----------------------------|-----------------------------------||
 G||------------------9----------|------------7----------------------||
 D||------------------9----------|--7/9-----------9---7---5-------5--||
 A||------------------7----------|----------------------------7------||
 E||--0-------0------------------|-----------------------------------||


    verse
 E||------------------------------|---------------------------------||
 B||------------------------------|---------------------------------||
 G||------------------------------|---------------------------------||
 D||--7---5-----------------------|-------5---5h7p5-----------------||
 A||----------7-----------5---7---|-------------------7-------------||
 E||------------------------------|---------------------------------||

    chorus 
 E||------------------------------|--------------------------------||
 B||------------------------------|--------------------------------||
 G||------------------------------|--------------------------------||
 D||------------5---5h7p5--8----5-|--------------------------------||
 A||-5---7-------------------7----|------5---7-----------5---7-----||
 E||------------------------------|--------------------------------||



this is another bootleg i got from a concert
they did a few songs i was unfamiliar with, but they kicked peter




every last one of you dicks can all eat rat poison for all i care. then
i won't have to deal with your sorry asses
Tap to rate this tab
# A B C D E F G H I J K L M N O P Q R S T U V W X Y Z