Song name
# A B C D E F G H I J K L M N O P Q R S T U V W X Y Z

Trivium - Falling To Grey tab

Trivium - Falling Into Grey
From "Ember to Inferno"
Tabbed by: jjhand

I corrected some of this tab and added the missing parts. 
Thanks to MiniMosher for several of the riffs!
The heavy chord progressions in the Chorus and Solo section are awesome! 
I'll warn you ahead of time, 'solo 2' towards the end is very hard to play! 

Tuning: Standard, requires Metal Distortion & footswitchable Harmonizer


Intro - Guitar 1 (all tremelo picked except bent note at end, play 2x)

e|----------------------------------------------|----------------------------------------------|
B|----------------------------------------------|----------------------------------------------|
G|---11-9-11----9-----------11-9-11----9--------|--0-12-11-12-9-11----9--0-12-11-12-9-11----9--|
D|-9---------12---11-12---9---------12---11-12--|------------------12--------------------12----|
A|----------------------------------------------|----------------------------------------------|
E|----------------------------------------------|----------------------------------------------|


e|----------------------------------------|-------------------------------------------|
B|----------------------------------------|-----------------------11----11-12-12b14~--|
G|----9-7-9-6-7---7------9-7-9-6-7---7----|-------------9----9-11----11---------------|
D|--------------9------------------9------|----12-11-12---12--------------------------|
A|--7------------------7------------------|--9----------------------------------------| 
E|----------------------------------------|-------------------------------------------| 


Solo 1 (0:22) - Guitar 1                 * Harmonizer ON (B, minor 3rd above)
e|--------------------------------------|-------------10-------|
B|-12-----------------------------------|--10-12-12b14   r12~~-| <- hold bend 
G|------------------------9-11-11b12r11-|----------------------|
D|----9-11-11b12r11-9-11----------------|----------------------|
A|--------------------------------------|----------------------|
E|--------------------------------------|----------------------|
                  * Harmonizer OFF
e|-12b14r12b14----15-14-----------------------------------------|
B|----------------------15--------------------------------------|
G|-------------------------14-12-11--------------11-------------|
D|---------------------------------14-12-11-------------11------|
A|-----------------------------------------14-13---13--------12-|
E|--------------------------------------------------------------|


In background (0:00- 0:32)
Guitar 2 - Intro & Solo 1 Rhythm    *let chords ring, play through 4x
e|-------|-------|-------|--------------|
B|-------|-------|-------|--------------|
G|--4----|-------|-------|-------3--6---|
D|--4----|--5----|--2----|--4----3--6---|
A|--2----|--5----|--2----|--4----1--4---|
E|--2----|--3----|--0----|--2----1--4---| 


 Main Riff (0:32) - Guitar 2    *PM all notes on low E string & play riff 2x
e|----------------------------------------------------------|
B|----------------------------------------------------------|
G|----------------------------------------------------------|
D|----------------------------------------------------------|
A|-5---9--10----9---7---------------5---4----7---5---4---2--|
E|-7-7-7-7-7-77-7-7-7-7-10-9-----33---3---33---3---3---3----|

e|----------------------------------------------------------|
B|----------------------------------------------------------|
G|----------------------------------------------------------|
D|----------------------------------------------------------|
A|----5---4----7---5---4---5------5---4p2------7------------|
E|-00---0---00---0---0---0-----22---2------555---5-7h9p5----|



Verse Riff - Both Guitars
e|------|------|------|----------------------------|
B|------|------|------|----------------------------|
G|------|------|------|----------------------------|
D|-9----|-5----|-2----|----------------------------|
A|-9----|-5----|-2----|----5---4p2------7----------|
E|-7----|-3----|-0----|-22---2------555---5-7h9p5--| 

Repeat Verse Riff

Verse Riff 2 - Both Guitars
e|--------------------------------------------------------------------------|
B|--------------------------------------------------------------------------|
G|-------------------------------7---9--11----------------------------------|
D|-------------------------------x---x---x----------------------------------|
A|-5-------2------5p4----5-------5---7---9-5--------2-------5p4---2--4-5p4--|
E|-7-00000-3-0000-----5--7-00000---0---0---7-000000-3-00000----5--3--5-----5|

Play Verse Riff 1 again twice, 

Play Verse Riff 2 twice


Chorus Riff (2:00, first time) 
   Guitar 2
e|-----------------------------------------------------|
B|-----------------------------------------------------|
G|-----------------------------------------------------|
D|-2--2----2--4-44-----4--9-9------9-9--9-9-9-------9--|
A|-2--2----2--4-44-----4--9-9------9-9--9-9-9-------9--|
E|-0--0-0000--2-22--2222--7-7--777-7-7--7-7-7--777--7--|
 | Guitar 1
e|----------------------------------------------------------|
B|----------------------------------------------------------|
G|----------------------------------------------------------|
D|--------------------------------------9-11---9------------|
A|------------------------------------------12---11-12-9-11-|
E|----------------------------------------------------------|

   Both guitars
e|----------------------------------------------------|
B|----------------------------------------------------|
G|----------------------------------------------------|
D|-2-2----2--4-4----4---------------------------------|
A|-2-2----2--4-4----4----5---7---9---10--9---7--------|
E|-0-0-0000--2-2-2222----7---9---10--12--10--9--------|

e|----------------------------------------------------|
B|----------------------------------------------------|
G|----------------------------------------------------|
D|-2--2-2----7-7-7--7--7-7-7/9--9-9--9-9--9-9--9--9-9-|
A|-2--2-2----7-7-7--7--7-7-7/9--9-9--9-9--9-9--9--9-9-|
E|-0--0-0--0h5-5-5--5--5-5-5/7--7-7--7-7--7-7--7--7-7-|

e|----------------------------------------------------|
B|----------------------------------------------------|
G|----------------------------------------------------|
D|-2--2-2----7-7-7--7--7-7-7/9--9-9--9----------------|
A|-2--2-2----7-7-7--7--7-7-7/9--9-9--9--9TP-----7TP---|
E|-0--0-0--0h5-5-5--5--5-5-5/7--7-7--7--10TP----9TP---|

e|----------------------------------|---------------------|
B|----------------------------------|---------------------|
G|----------------------------------|---------------------|
D|-0--0-0---------------------------|-0--0-0--------------|
A|-2--2-2--4--4-4---4--4-4--5--5-4--|-2--2-2--4--4-4---5--|
E|-3--3-3--5--5-5---6--6-6--7--7-5--|-3--3-3--5--5-5---7--|

Play Verse Riff 1 only once, then:

All Tremelo Picked Riff: 
   Guitar 1
e|-----------------|-----------------|-----------------|-----------------|
B|-----------------|-----------------|-----------------|-----------------|
G|-----------------|-----------------|-----------------|-----------------|
D|-------------4-2-|-----------2-----|-----------2-----|---------2--2-0--|
A|-2---4-2-5-------|---5---4-----5-4-|---5---4-----5-4-|---5-4-5---------|
E|-----------------|-3---3---3-------|-0---0---0-------|-2---------0-----|
 | Guitar 2
e|-----------------|-----------------|-----------------|-----------------|
B|-----------------|-----------------|-----------------|-----------------|
G|-------------2-4-|-----------------|-----------------|-----------------|
D|-0---2-0-4-------|---4---2---5-4-2-|---4---2---5-4-2-|-----------------|
A|-----------------|-2---2---2-------|-----------------|---------0-------|
E|-----------------|-----------------|-4---4-----------|-0---------------|

Play Verse Riff 2 twice

Play Chorus again

Interlude - Both Guitars, let notes ring                            
e|-------|-------|-------|----------|---------|---------|---------|-------------|
B|--2----|--3----|-------|--5-------|---------|---------|---------|-------------|
G|--4----|--4----|-------|--7---4-6-|---------|---------|---------|-------------|
D|--4----|--5----|--7----|--7-------|-5-------|-(5)-----|-7-------|-------------|
A|--2----|--5----|--4----|--5---2-4-|---------|---------|---------|-9--7~--9--7~|
E|-------|-------|--4----|--5-------|-3-------|-(3)-----|-5-------|-10-9~--10-9~|

Guitar 1 - Play Interlude again, Guitar 2 plays:
e|------------------|------------------|-----------------|-------------------|
B|------------------|------------------|-----------------|-------------------|
G|------------------|------------------|-----------------|-------------------|
D|-11-------------9-|-11-------------9-|-11------------9-|-11-----------9-11-|
A|------9---7-------|------9---7-------|-----9---7---9---|------9---7--------|
E|----7---7--10-7---|----7---7--10-7---|---7---7---7-----|----7---7---7------|

e|-------------------|-------------------|--------------------|Both Guitars-|
B|-------------------|-------------------|--------------------|-------------|
G|-------------------|-------------------|--------------------|-------------|
D|-12--11-----12--11-|-12--11-----12--11-|-/14--12-----14--12-|-------------|
A|---10--10-10--10---|---10--10-10--10---|----12--12-12--12---|-9--7~--9--7~|
E|-------------------|-------------------|--------------------|-10-9~--10-9~|


Solo 2, Guitar 1:                        * Harmonizer ON (B, minor 3rd above)
e|------------------------------------|-------------10-------|
B|------------------------------------|--10-12-12b14   r12~~-| <- hold bend
G|----------------------9-11-11b12r11-|----------------------|
D|--9-11-11b12r11-9-11----------------|----------------------|
A|------------------------------------|----------------------|
E|------------------------------------|----------------------|
              * Harmonizer OFF
e|-12b14r12b14---14-15-14--14-15-14--14-15-14--------------------------------|
B|-----------------------15--------15--------15-15-----15--------------------|
G|------------------------------------------------12-12--12-11-12-14-12-11---|
D|------------------------------------------------------------------------14~|
A|---------------------------------------------------------------------------|
E|---------------------------------------------------------------------------|

e|------------------------------14--14-12--12-14b15-14~---|
B|---------------------------------------15---------------|
G|-11--11--11--------------11-12--14----------------------|
D|---14--12--------11-12-14-------------------------------|
A|------------12-14---------------------------------------|
E|--------------------------------------------------------|

D|---------------------------------------------------------------------------|
A|-12-14-12--12--------------------------------------------------------------|
E|---------14--14-14------------------------------------------------------9~-|
D|------------------14-14-11-11-14-11-12-11------------------------9-10-12---|
A|-----------------------------------------12-----12--------9-10-12----------|
E|-------------------------------------------12-14---9-10-12-----------------|

e|-----------------12-14-15~-12--12-14-14h15p14-12--------------|
B|---------12-14-15------------15-----------------15-14-12-11/12|
G|-11-12-14-----------------------------------------------------|
D|--------------------------------------------------------------|
A|--------------------------------------------------------------|
E|--------------------------------------------------------------|
                                                                       * Harmonizer ON
e|-----------------15-15-14-12------------------------15-14-12-------|-17-15-17-19-17-19-19b21~~-|
B|---------12-14-15-----------15-14-12--------------12--------12--12-|---------------------------|
G|-11-12-14---------------------------14-12-11-12-14------------14---|---------------------------|
D|-------------------------------------------------------------------|---------------------------|
A|-------------------------------------------------------------------|---------------------------|
E|-------------------------------------------------------------------|---------------------------|

Play Main Riff 1x

Play Verse Riff 1 once 

Play All Tremelo Picked Riff once

Play Verse Riff 2 twice

Play Chorus one last time


Ending - all PM
e|-------------------------------------|
B|-------------------------------------|
G|-------------------------------------|
D|-----------------------9-------------|
A|-9--9--9--9--7-7-7-7---9-------------|
E|-10-10-10-10-9-9-9-9---7-------------|


KEY:

| /  slide up
| \  slide down
| h  hammer-on
| p  pull-off
| ~  vibrato
| +  harmonic
| x  Mute note
| PM palm mute
| TP tremelo picked
| b  string bend
| r  release of bent string
Tap to rate this tab
 
# A B C D E F G H I J K L M N O P Q R S T U V W X Y Z