Guitaretab - guitar tabs
Song name
# A B C D E F G H I J K L M N O P Q R S T U V W X Y Z

Trivium - To Burn The Eye tab

Trivium-To Burn The Eye
Ember To Inferno

Tuning: Standard

Legend:
.  Palm Mute
h  Hammer-on
p  Pull-off
~  Let ring
/  Slide up
\  Slide down
b  bend
r  release

I added lyric samples and riff times to make this as easy to
read as possible.

Intro (0:00)
e|---------------------------------------------------|
B|---------------------------------------------------|
G|---------------------------------------------------|
D|6-6-6-6--6-6-6-6--66666-6-6-6--6-6-6-6--6666--    -|
A|6-6-6-6--6-6-6-6--44444-4-4-4--6-6-6-6--6666-- x2 -|
E|4-4-4-4--4-4-4-4--44444-4-4-4--4-4-4-4--4444--    -|
  . . . .  . . . .  ..... . . .  . . . .  ....
(0:07)
e|------------------------------------------------|
B|------------------------------------------------|
G|99-88-66--99-88-66--1212-1111-99--1212-1111-99--|
D|99-88-66--99-88-66--1212-1111-99--1212-1111-99--|
A|77-66-44--77-66-44--1010-9-9--77--1010-9-9--77--|\
E|00-00-00--00-00-00--0-0--0-0--00--0-0--0-0--00--| \
                                                    x2
e|------------------------------------------------| /
B|------------------------------------------------|/
G|99-88-66--99-88-66--1212-1111-9---6~-7~-9~------|
D|99-88-66--99-88-66--1212-1111-9---6~-7~-9~------|
A|77-66-44--77-66-44--1010-9-9--7---4~-5~-7~------|
E|00-00-00--00-00-00--0000-0000-0---0~-0~-0~------|

===========================================================

Verse Riff (“A mind lost within its own self...”)(0:35)
e|----------------------------------------------|
B|----------------------------------------------|
G|----------------------------------------------|
D|----------------------------------------------|
A|----------------------------------------------|\
E|-4-444-7-44-6-44-9p7p6-4-444-7-44-6-44-9p7p6--| \
   . ...   ..   ..       . ...   ..   ..          x4 
e|----------------------------------------------| /
B|----------------------------------------------|/
G|----------------------------------------------|
D|----------------------------------------------|
A|----------------------------------------------|
E|-6-666-9-66-7-66-9-6-7-6-666-9-66-7-66-11p9p7-|
   . ...   ..   ..   .   . ...   ..   ..  
Bridge (1:01)
e|--------------------------------------------------|
B|--------------------------------------------------|
G|-------------------------------6-4-6------8-6/8\6-|
D|-------------/8-88-8-99-11-----x-x-x------x-x/x\x-|x2
A|6-66-66-66-6-/x-xx-x-xx-x--2---4-2-4--4---6-4/6\4-|
E|4-44-44-44-4-/6-66-6-77-9--0-0--0-0---2-0--0------|
                               .  . .     .  .

Verse (“Darkness will cover the mind...”)(1:13)
e|----------------------------------------------|
B|----------------------------------------------|
G|----------------------------------------------|
D|----------------------------------------------|
A|----------------------------------------------|\
E|-4-444-7-44-6-44-9p7p6-4-444-7-44-6-44-9p7p6--| \
   . ...   ..   ..       . ...   ..   ..          x2 
e|----------------------------------------------| /
B|----------------------------------------------|/
G|----------------------------------------------|
D|----------------------------------------------|
A|----------------------------------------------|
E|-6-666-9-66-7-66-9-6-7-6-666-9-66-7-66-11p9p7-|
   . ...   ..   ..   .   . ...   ..   ..  

============================================================

Pre-Chorus (“BURN in your own hell...”)(1:25)
e|--------------------------------------------------|
B|--------------------------------------------------|
G|-------------------------------6-4-6------8-6/8\6-|
D|-------------/8-88-8-99-11-----x-x-x------x-x/x\x-|x4
A|6-66-66-66-6-/x-xx-x-xx-x--2---4-2-4--4---6-4/6\4-|
E|4-44-44-44-4-/6-66-6-77-9--0-0--0-0---2-0--0------|
                               .  . .     .  .

Chorus (“Two become as one...”) (1:49)
e|--------------------------------------------------|
B|--------------------------------------------------|
G|--------------------------------------------------|
D|6~------------------------------------------------|
A|6~--666777444666222444----------------------------|
E|4~--------------------666777----------------------|
      ........................
e|--------------------------------------------------|
B|--------------------------------------------------|
G|--------------------------------------------------|
D|22-2-6-44-4-8-66-666666---------------------------|
A|22-2-6-44-4-8-66-666666-666777444666222444--------|
E|00-0-4-22-2-6-44-444444-------------------666777--|
     .      .      ...... ........................
e|--------------------------------------------------|
B|--------------------------------------------------|
G|--------------------------------------------------|
D|22-2-6-44-4-8-66--66-6-66-6-----------------------|
A|22-2-6-44-4-8-66--66-6-66-6-----------------------|
E|00-0-4-22-2-6-44--44-4-44-4-4-6-7-----------------|
     .      .       ..   .. 
(“Burn the eye to blind...”)(2:02)
e|--------------------------------------------------|
B|--------------------------------------------------|
G|22-222-44-444-66-666-666-666--    ----------------|
D|22-222-44-444-66-666-666-666-- x4 ----------------|
A|00-000-22-222-44-444-444-444--    ----------------|
E|00-000-22-222-44-444-444-444----------------------|

==========================================================

Verse (“No longer are you human...”)(2:22)
e|----------------------------------------------|
B|----------------------------------------------|
G|----------------------------------------------|
D|----------------------------------------------|
A|----------------------------------------------|\
E|-4-444-7-44-6-44-9p7p6-4-444-7-44-6-44-9p7p6--| \
   . ...   ..   ..       . ...   ..   ..          x2 
e|----------------------------------------------| /
B|----------------------------------------------|/
G|----------------------------------------------|
D|----------------------------------------------|
A|----------------------------------------------|
E|-6-666-9-66-7-66-9-6-7-6-666-9-66-7-66-11p9p7-|
   . ...   ..   ..   .   . ...   ..   ..  

===========================================================

Pre-Chorus (“BURN in your own hell...”)(2:35)
e|--------------------------------------------------|
B|--------------------------------------------------|
G|-------------------------------6-4-6------8-6/8\6-|
D|-------------/8-88-8-99-11-----x-x-x------x-x/x\x-|x4
A|6-66-66-66-6-/x-xx-x-xx-x--2---4-2-4--4---6-4/6\4-|
E|4-44-44-44-4-/6-66-6-77-9--0-0--0-0---2-0--0------|
                               .  . .     .  .
Chorus (“To destroy the faith...”)(2:59)
e|--------------------------------------------------|
B|--------------------------------------------------|
G|--------------------------------------------------|
D|22-2-6-44-4-8-66-666666---------------------------|
A|22-2-6-44-4-8-66-666666-666777444666222444--------|
E|00-0-4-22-2-6-44-444444-------------------666777--|
     .      .      ...... ........................
e|--------------------------------------------------|
B|--------------------------------------------------|
G|--------------------------------------------------|
D|22-2-6-44-4-8-66--66-6-66-6-----------------------|
A|22-2-6-44-4-8-66--66-6-66-6-----------------------|
E|00-0-4-22-2-6-44--44-4-44-4-4-6-7-----------------|
     .      .       ..   .. 
(“Burn the eye to blind...”)(3:09)
e|--------------------------------------------------|
B|--------------------------------------------------|
G|22-222-44-444-66-666-666-666--    ----------------|
D|22-222-44-444-66-666-666-666-- x4 ----------------|
A|00-000-22-222-44-444-444-444--    ----------------|
E|00-000-22-222-44-444-444-444----------------------|

Bridge 2 (3:30)
e|--------------------|-----------------------------|
B|--------------------|-6--7--10--7-----------------|
G|--------------------|--5--6---9--5    ------------|
D|--------------------|------------- x2 ------------|
A|5-6-3-2~~~~~~2~~~~~~|2--3--8---2--    ------------|
E|3-4-1-0~~~~~~0~~~~~~|0--1--6---0------------------|

(“Life shell-shocks your empty soul...”) (3:56)
e|--------------------------------------------------|
B|--------------------------------------------------|
G|--------------------------------------------------|
D|-----------------------------------66-    --------|
A|-----------------------------------55- x2 --------|
E|4012-4012-4012-4012-4012-4012-4012-33-    --------|
  .... .... .... .... .... .... ....
[ Tab from: http://www.guitaretab.com/t/trivium/65268.html ]
(“You think you will win...”)(4:08)
e|--------------------------------------------------|
B|--------------------------------------------------|
G|--------------------------------------------------|
D|-----------------------------------66-------------|
A|6234-6234-6234-6234-6234-6234-6234-55-------------|
E|4012-4012-4012-4012-4012-4012-4012-33-------------|
For this part. it’s kinda hard to play the powerchords that
fast, so if you’re playing with two guitarists, you might
want to divide the low E and A strings between two guitars
for the first 28 notes.

(4:20)
e|--------------------------------------------------|
B|--------------------------------------------------|
G|--------------------------------------------------|
D|-2-0---     --------------------------------------|
A|-2-2--- x13 --------------------------------------|
E|-0-0---     --------------------------------------|
   . .
(“Life skins mind bleeding dry...”) (4:30)
e|--------------------------------------------------|
B|--------------------------------------------------|
G|--------------------------------------------------|
D|-----------------------------------88-------------|
A|6234-6234-6234-6234-6234-6234-6234-77-------------|
E|4012-4012-4012-4012-4012-4012-4012-55-------------|

(4:42)
e|--------------------------------------------------|
B|--------------------------------------------------|
G|---------------    -------------------------------|
D|22----22-22--7- x8 -------------------------------|
A|22----22-22--8-    -------------------------------|
E|00----00-00---------------------------------------|

Solo (5:05) This isn’t my solo, it’s Geetar_Man0’s.  I
didn’t see the point in tabbing it when there was one
already well-tabbed, I’d just be telling you to go look at
it instead.  So I’ve saved us all some trouble and put it
here, but it’s not my work.
e|/16-13-12-13-12-13-16-13-12-13--------------------|
B|------------------------------15-13-12-13-12-10-9-|
G|--------------------------------------------------|
D|--------------------------------------------------|
A|--------------------------------------------------|
E|--------------------------------------------------|

e|--------------------------------------------------|
B|10-12-10-9-10-10b--10-9-10-12-12-10-9-10-9--------|
G|------------------------------------------10-9--10|
D|----------------------------------------------12--|
A|--------------------------------------------------|
E|--------------------------------------------------|

e|--------------------------------------------------|
B|-----------------9-10-9-10-13-12-10--12-10--10----|
G|-----------------------------------13-----13------|
D|12-10-9-7-6---------------------------------------|
A|--------------------------------------------------|
E|--------------------------------------------------|

e|--------------------------------------------------|
B|-1010101010-99999-1212121212-1010101010-----------|
G|--------------------------------------------------|
D|--------- not exact, tremolo pick these notes ----|
A|--------------------------------------------------|
E|--------------------------------------------------|

e|----12--------12-16-12--12t19p16p12-12t19p16p12---|
B|--12--15b---15--------15--------------------------|
G|13------------------------------------------------|
D|--------------------------------------------------|
A|--------------------------------------------------|
E|--------------------------------------------------|

e|12t19p16p12-12t19p16p12-12t19p16p12-t20p16p12-----|
B|--------------------------------------------------|
G|--------------------------------------------------|
D|--------------------------------------------------|
A|--------------------------------------------------|
E|--------------------------------------------------|

e|t20p16p12-t19p16p12-t19p16p12-18p16p12-18p16p12-16\|
B|---------------------------------------------------|
G|---------------------------------------------------|
D|---------------------------------------------------|
A|---------------------------------------------------|
E|---------------------------------------------------|

e|-20-19-17-16---------17-24-20-17-----17-20-24-17--|
B|--------------------------------------------------|     
G|--^^these four notes------------------------------|
D|--tremolo picked----------------------------------|
A|--------------------------------------------------|
E|--------------------------------------------------|

e|-------16-----16-----------16-19-19-17-16-----------|
B|--17-18--18-17--18-17----17-------------------------|
G|16---------------------16----------------19-19-17-16|
D|---------------------14-----------------------------|
A|----------------------------------------------------|
E|----------------------------------------------------|

e|16-19-19-17-16-14-16-19--19-20-19-20-22b~~~~~~~~~~|
B|-----------------------22-------------------------|
G|--------------------------------------------------|
D|--------------------------------------------------|
A|--------------------------------------------------|
E|--------------------------------------------------|

Rhythm for solo
e|--------------------------------------------------|
B|--------------------------------------------------|
G|--------------------------------------------------|
D|--------------- x4 (not exact) -------------------|
A|--------------------------------------------------|
E|-3333333333-4444444444-11111111111-00000000000----|

Bridge 3 (5:27)
e|--------------------------------------------------|
B|--------------------------------------------------|
G|--------------------------------------------------|
D|22222222------------------------------------------|
A|22222222--666777444666222444----------------------|
E|00000000--------------------666777----------------|
  ........  ........................

Pre-Chorus (“To destroy the faith...”)(5:29)
e|--------------------------------------------------|
B|--------------------------------------------------|
G|--------------------------------------------------|
D|22-2-6-44-4-8-66-666666---------------------------|
A|22-2-6-44-4-8-66-666666-666777444666222444--------|
E|00-0-4-22-2-6-44-444444-------------------666777--|
     .      .      ...... ........................
e|--------------------------------------------------|
B|--------------------------------------------------|
G|--------------------------------------------------|
D|22-2-6-44-4-8-66--66-6-66-6-----------------------|
A|22-2-6-44-4-8-66--66-6-66-6-----------------------|
E|00-0-4-22-2-6-44--44-4-44-4-4-6-7-----------------|
     .      .       ..   ..
(“Burn the eye to blind...”)(5:39)
e|--------------------------------------------------|
B|--------------------------------------------------|
G|22-222-44-444-66-666-666-666--    ----------------|
D|22-222-44-444-66-666-666-666-- x6 ----------------|
A|00-000-22-222-44-444-444-444--    ----------------|
E|00-000-22-222-44-444-444-444----------------------|

Outro (6:10)
Guitar 1
e|--------------------------------/15-14-----/15--14----|
B|-14b15r14-12----14b15r14-12------------12\---------12\|
G|-------------13-------------13------------------------|
D|------------------------------------------------------|
A|------------------------------------------------------|
E|------------------------------------------------------|
Guitar 2
e|------------------------------------------------------|
B|------------------------------------------------------|
G|-15b16r15-13----15b16r15-13----/12-11-----/12-11------|
D|-------------13-------------13--------9\---------9\---|
A|------------------------------------------------------|
E|------------------------------------------------------|
Guitar 1
e|-/15--14------9--10--12---------------------------|
B|----------12--------------------------------------|
G|--------------------------------------------------|
D|--------------------------------------------------|
A|--------------------------------------------------|
E|--------------------------------------------------|
Guitar 2
e|--------------------------------------------------|
B|--------------------------------------------------|
G|-/12--11-----6--7--9------------------------------|
D|---------9----------------------------------------|
A|--------------------------------------------------|
E|--------------------------------------------------|

repeat until fadeout.

this is my first tab and all that.









Related for To Burn The Eye tab
Advertisement will be closed in 10 seconds