Song name
# A B C D E F G H I J K L M N O P Q R S T U V W X Y Z

Trivium - Washing Away Me In The Tides tab

=============================================================================

Artist - Trivium
Song - Washing Away Me In The Tides
Transcribed by - Conor Curtis

=============================================================================


Verse
Guitar 1
|---------------------------------------------------------------------------|
|---------------------------------------------------------------------------|
|-------------------------------------------------------------5---7-5-4-----|
|-------------------------7----------2h3------3-2b(3)r-3-3--3----------5-3-2|
|0------------------------5----------------1-1------------------------------|
|0--0--0-0-0--0--0--0-0-0---0--0-0-0-----0----------------------------------|

Guitar 2
|---------------------------------------------------------------------------|
|---------------------------------------------------------------------------|
|----------------------------------------------------------9----10-9-7------|
|-------------------------7----------5h7------7-5b(7)r-7-7---7--------10-9-7|
|0------------------------5----------------5-5------------------------------|
|0--0--0-0-0--0--0--0-0-0---0--0-0-0-----0----------------------------------|

Guitar 1
|---------------------------------------------------------------------------|
|---------------------------------------------------------------------------|
|---------------------------------------------------------------------------|
|-------------------------7----------2h3-------3-2b(3)r-0-0-----------------|
|0------------------------5----------------1-1--------------0-3-3-----------|
|0--0--0-0-0--0--0--0-0-0---0--0-0-0-----0----------------------------------|

Guitar 2
|---------------------------------------------------------------------------|
|---------------------------------------------------------------------------|
|---------------------------------------------------------------------------|
|-------------------------7----------5h7-------7-5b(7)r---------------------|
|0------------------------5----------------5-5----------8-8-0-7-7-----------|
|0--0--0-0-0--0--0--0-0-0---0--0-0-0-----0----------------------------------|

Pre chorus
Guitar 1
|---------------------------------------------------------------------------|
|---------------------------------10-8--------------------------------------|
|-----------------------------10p9----10-------9-------10------9------9h10--|
|12----------10----------12s14-----------7-7-7---7-7-7---7-7-7---7-7-7------|
|---8--8-8-8----8--8-8-8----------------------------------------------------|
|---------------------------------------------------------------------------|

Guitar 2
|--------------------------------------------------------------------------|
|--------------------------------------------------------------------------|
|---------------------------------7-5--------------------------------------|
|3-----------2----------3s5---7p5------7-------5-------7-------5------5h7--|
|--1--1-1-1----1--1-1-1------------------5-5-5---5-5-5---5-5-5---5-5-5-----|
|--------------------------------------------------------------------------|


Chorus
Guitar 1
|---------------------------------------------------------------------------|
|---------------------------------------------------------------------------|
|--------------3~--------------5~-------------------------------------------|
|--0~----------3~--------------5~---------------5-------5---7-------7----0~-|
|--0~----------1~--------------3~---------------5-------5---7-------7----0~-|
|--0~-------------------------------------------5---0---5---7---0---7----0~-|

Guitar 2
|----------8~-----------5----------------------------5-----8---12---8-------|
|--------------------8-----8---6------------6---5-------6-------------10~---|
|-------9---------5------------------5---7---------5------------------------|
|----7---------3-------------------5----------------------------------------|
|-5-------------------------------------------------------------------------|
|---------------------------------------------------------------------------|

Do the the above again once.

Bridge and Solo rhythm.
|--------------------------------------------------------------------------|
|--------------------------------------------------------------------------|
|--------------------------------------------------------------------------|
|--------------------------------------------------------------------------|
|--------3---------5~---------3--------7~--------3---------8~--------3-----|
|-0--3h5----5~---0----0--3h5----5~---0----0--3h5----5~---0----0--3h5---5~--|

Continued from above...
|-----------------|
|-----------------|
|-----------------|
|--5---3---2---3--|
|----0---0---0----|
|-----------------|

Guitar Solo (Cory)
|---------------------------------------------|
|-7b-------10-8-------------------------------|
|-7b--10b~------10-8----8---------------------|
|-----10b~-----------10---10-8----8-----------|
|------------------------------10---10-8-10b~-|
|---------------------------------------------|

Do the below REALLY fast until Matt takes over.
|----------------------------------------------------------10-12-10----|
|----------------------------------------10-11-13-12-14-15----------12-|
|----------------------10-11-13-10-12-13-------------------------------|
|------8-10-11-9-11-12-------------------------------------------------|
|-8-10-----------------------------------------------------------------|
|----------------------------------------------------------------------|

|----------12-14-12------------------------------------------|
|-10-12-14----------14-12-14-12-11---------------------------|
|----------------------------------13-11-13-11----------12b~-|
|----------------------------------------------13-11-13------|
|------------------------------------------------------------|
|------------------------------------------------------------|

|-------------------------13-14-16-------------------------|
|----------------13-14-16----------13-14-16----------------|
|-------13-14-16----------------------------13-14-16-------|
|-12-14----------------------------------------------12-15-|
|----------------------------------------------------------|
|----------------------------------------------------------|

|-------------------15-17-18---------------------------17b17b-17-15-------|
|----------15-17-18----------15-17-18-------------------------------17-13-|
|-15-17-18----------------------------15-17-18--16-18---------------------|
|-------------------------------------------------------------------------|
|-------------------------------------------------------------------------|
|-------------------------------------------------------------------------|
                                    (Matt takes over here)
|--------------------------------|------------------------------|
|-9--7--44~--8bx8bx8bx8bx8b-10-8-|-8b-5-3-55-8------------------|
|-9--7--44~--8bx8bx8bx8bx8b-10-8-|-8b-5-3-55-8--10-8----8-------|
|--------------------------------|-------------------10---10----|
|--------------------------------|---------------------------12-|
|--------------------------------|------------------------------|

|---------------------------------------------------------------------|
|---------------------------------------------------------------------|
|---------------------8----------------10-----------------12----------|
|------8---------8-10---10-8-10--10-12----12-10-12--12-14----14-12-14-|
|-8-10---10-8-10------------------------------------------------------|
|---------------------------------------------------------------------|

|------------------------------------------------------------1515-17-20b-|
|-------12-----------------14-----------------15----------17-------------|
|-12-14----14-12-14--14-16----16-14-16--15-17----17-15-17----------------|
|------------------------------------------------------------------------|
|------------------------------------------------------------------------|
|------------------------------------------------------------------------|

Tap to rate this tab
# A B C D E F G H I J K L M N O P Q R S T U V W X Y Z