Guitaretab - guitar tabs
Song name
# A B C D E F G H I J K L M N O P Q R S T U V W X Y Z

Trivium - When All Light Dies tab

-------------------------------------------------------------------------------
			     When All Light Dies - Trivium
-------------------------------------------------------------------------------
Tabbed by: Kalon Rumens 
Email: Kalonwolf@hotmail.com (No Spam! Feedback + Corrections + solo only! :P)

Tuning: Drop D - Dadgbe

Seen a lot of bad tabs for this and so decided to put a decent one up.
Here is my interpretation of When All Light Dies by Trivium. 
I'm not going to attempt the solo but I got pretty much most of the song! Enjoy! 
Also... Woot! My first tab! ^^

Intro:

e|--------------------------------------------------------------------------|
B|--------------------------------------------------------------------------|
G|----9/10-----10/7-----7/12-----12/6-----7-----9-----14/15-----15/14-------|
D|----x/x------x-/x-----x/x------x-/x-----x-----x-----x-/x------x-/x--------|
A|----7/8------8-/5-----5/10-----10/4-----5-----7-----12/13-----13/12-------|
D|0-0------0-0------0-0------0-0------0-0---0-0---0-0-------0-0-------0-0---|
PM. .      . .      . .      . .      . .   . .   . .       . .       . .

e|--------------------------------------|
B|--------------------------------------|
G|-12/14/12-----10/12/10-----9/10/9--6--|   Played 6 times
D|-x-/x-/x------x-/x-/x------x/x-/x--x--|
A|-10/12/10-----8-/10/8------7/8-/7--4--|
D|----------0-0----------0-0------------|
PM          . .          . .

Then...

e|--------------------------------------------------------------------------|
B|--------------------------------------------------------------------------|
G|--------------------------------------------------------------------------|      Played 4 times
D|-----------------------------------7--7--7--7--5-5--5--5--5----*----------|
A|-5--5--5--5--7-7--8--8--8--8--7-7----------------------------5-4b5-(4)----|
D|--00-00-00-00-0-0--55-55-55-55-5-5--33-33-33-33-3-3--22-22-2--------------|
PM  .. .. .. .. . .  .. .. .. .. . .  .. .. .. .. . .  .. .. .

Then...

e|--------------------------------------------------------------------------|
B|--------------------------------------------------------------------------|
G|---------------------------------------------------------9-9-999-9-9-999--|
D|-7---------------------7-7-7-----------------------------x-x-xxx-x-x-xxx--|
A|-5---------------------5-5-5-4---------------------4-4-4-7-7-777-7-7-777--|
D|---0-0-0-0-0-0-0-0-0-0-------8-8-8-8-8-8-8-8-8-8-8-8-8-8------------------|
PM   . . . . . . . . . .         . . . . . . . . . .


e|------------------------|
B|------------------------|
G|-10-10-101010-7-77-6-66-|  Played 2 times
D|-x--x--x-x-x--x-xx-x-xx-|
A|-8--8--8-8-8--5-55-4-44-|
D|------------------------|

And then...

  "It's so beautiful..."
e|--------------------------------------------------------------------------|
B|--------------------------------------------------------------------------|
G|--------------------------------------------------------------------------|
D|--------------7----------------------7------------------------------------|
A|-7---8---7--------10-8---7---8---7-------10-8---8---7---8---10---8-7------|
D|--0-0-0-0--0-0-0-0--0-0---0-0-0-0-0-0-0-0--0-0---8-8-8-8-8-8--8-8-8-8-----|
PM  . . . .  . . . .  . .   . . . . . . . .  . .   . . . . . .  . . . .


e|----------------------------------|
B|----------------------------------|
G|----------------------------------|  Played twice
D|----------------------------------|
A|-8-----7-----8--10-----8-----10---|
D|--10-10-10-10-10--10-10-10-10--10-|
PM  .  .  .  .  .   .  .  .  .   .

And then...

 "Prayed to be free..."
e|-------------|
B|-------------|
G|-------------|  Played twice
D|-0--8--5--7--|
A|-0--8--5--7--|
D|-0--8--5--7--|
PM

Back to this...

e|--------------------------------------------------------------------------|
B|--------------------------------------------------------------------------|
G|--------------------------------------------------------------------------|      Played 2 times
D|-----------------------------------7--7--7--7--5-5--5--5--5----*----------|
A|-5--5--5--5--7-7--8--8--8--8--7-7----------------------------5-4b5-(4)----|
D|--00-00-00-00-0-0--55-55-55-55-5-5--33-33-33-33-3-3--22-22-2--------------|
PM  .. .. .. .. . .  .. .. .. .. . .  .. .. .. .. . .  .. .. .

Then...
[ Tab from: http://www.guitaretab.com/t/trivium/69432.html ]
e|--------------------------------------------------------------------------|
B|--------------------------------------------------------------------------|
G|---------------------------------------------------------9-9-999-9-9-999--|
D|-7---------------------7-7-7-----------------------------x-x-xxx-x-x-xxx--|
A|-5---------------------5-5-5-4---------------------4-4-4-7-7-777-7-7-777--|
D|---0-0-0-0-0-0-0-0-0-0-------8-8-8-8-8-8-8-8-8-8-8-8-8-8------------------|
PM   . . . . . . . . . .         . . . . . . . . . .


e|------------------------|
B|------------------------|
G|-10-10-101010-7-77-6-66-|  Played 2 times
D|-x--x--x-x-x--x-xx-x-xx-|
A|-8--8--8-8-8--5-55-4-44-|
D|------------------------|

And then...

  "It's so beautiful..."
e|--------------------------------------------------------------------------|
B|--------------------------------------------------------------------------|
G|--------------------------------------------------------------------------|
D|--------------7----------------------7------------------------------------|
A|-7---8---7--------10-8---7---8---7-------10-8---8---7---8---10---8-7------|
D|--0-0-0-0--0-0-0-0--0-0---0-0-0-0-0-0-0-0--0-0---8-8-8-8-8-8--8-8-8-8-----|
PM  . . . .  . . . .  . .   . . . . . . . .  . .   . . . . . .  . . . .


e|----------------------------------|
B|----------------------------------|
G|----------------------------------|  Played twice
D|----------------------------------|
A|-8-----7-----8--10-----8-----10---|
D|--10-10-10-10-10--10-10-10-10--10-|
PM  .  .  .  .  .   .  .  .  .   .

Then...

 "Prayed to be free..."
e|-------------|
B|-------------|
G|-------------|  Played twice
D|-0--8--5--7--|
A|-0--8--5--7--|
D|-0--8--5--7--|
PM

Then...

e|---|----------------------------------| 
B|---|----------------------------------|
G|---|----------------------------------| Played 3 times
D|-0-|----------------------------------|
A|-0-|0000-00-0000-00-0000-00-0000-0000-|
D|-0-|0000-00-0000-00-0000-00-0000-0000-|
PM    .... .. .... .. .... .. .... ....

Then... 

 "Make me swear if I see your face again..." 
e|-------------------------------------------------|
B|-------------------------------------------------| 
G|-------------------------------------------------|  Played Once
D|-----0-----0-----0-----0-----0-----0-----0-----0-|
A|-000-0-000-0-000-0-000-0-000-0-000-0-000-0-000-0-|
D|-000-0-000-0-000-0-000-0-000-0-000-0-000-0-000-0-|
PM ...   ...   ...   ...   ...   ...   ...   ...

Then...

"Fuck You..."
e|-------------------------------------------------------------|
B|-------------------------------------------------------------|
G|-------------------------------------------------------------| Played twice
D|-----1/4-----0------4/5-----0-----5/8-----0------------------|
A|-000-1/4-000-0--000-4/5-000-0-000-5/8-000-0-00-3-2-0-8-7-5-7-|
D|-000-1/4-000-0--000-4/5-000-0-000-5/8-000-0-00-3-2-0-8-7-5-7-|
PM ...     ...    ...     ...   ...     ...   .. . . . . . . .

And then...

 "Tie you up make you bleed tear you apart..." 
e|-------------------------------------------------|
B|-------------------------------------------------| 
G|-------------------------------------------------|  Played Once
D|-----0-----0-----0-----0-----0-----0-----0-----0-|
A|-000-0-000-0-000-0-000-0-000-0-000-0-000-0-000-0-|
D|-000-0-000-0-000-0-000-0-000-0-000-0-000-0-000-0-|
PM ...   ...   ...   ...   ...   ...   ...   ...

Then...

 "I want to take your life..."
e|-------------------------------------------------------------|
B|-------------------------------------------------------------|
G|-------------------------------------------------------------| Played twice
D|-----1/4-----0------4/5-----0-----5/8-----0------------------|
A|-000-1/4-000-0--000-4/5-000-0-000-5/8-000-0-00-3-2-0-8-7-5-7-|
D|-000-1/4-000-0--000-4/5-000-0-000-5/8-000-0-00-3-2-0-8-7-5-7-|
PM ...     ...    ...     ...   ...     ...   .. . . . . . . .


SOLO (Which I don't know!)

Finally!...

e|--------------------------------------------------------------------------|
B|--------------------------------------------------------------------------|
G|--------------------------------------------------------------------------|
D|-----0-----0-----0-----0--------------------------------------------------|
A|-000-0-000-0-000-0-000-0-000-0-0-000-0-0-000-0-0-000-0-0-000-0-0-000-0-0--|
D|-000-0-000-0-000-0-000-0-000-0-0-000-0-0-000-0-0-000-0-0-000-0-0-000-0-0--|
PM ...   ...   ...   ...   ... . . ... . . ... . . ... . . ... . . ... . .


e|--------------------------------------------------------------------------|
B|--------------------------------------------------------------------------|
G|--------------------------------------------------------------------------|
D|-----------------0--------------------------------------------------------|
A|-000-0-0-000-0-0-0--------------------------------------------------------|
D|-000-0-0-000-0-0-0--------------------------------------------------------|
PM ... . . ... . . 



| /  slide up
| \  slide down
| h  hammer-on
| p  pull-off
| ~  vibrato
| +  harmonic
| x  Mute note
===============================================================================

Related for When All Light Dies tab
Advertisement will be closed in 10 seconds