Song name
# A B C D E F G H I J K L M N O P Q R S T U V W X Y Z

Trivium - Pillars Of Serpants tab

this is not the actual solo (some parts are) but it blends with the song really good and 
a little easier to play

tab legend:
/ - slide up
\ - slide down
b - bend
h - hammer-on
p - pull-off
~ - let ring


E|----------------------------------------------------------|
B|----------------------------------//13-12-10-9h10--9~-----|
G|--------------//12~--10-9-10p9-10-------------------------|
D|-//10~--10p9----------------------------------------------|
A|----------------------------------------------------------|
E|----------------------------------------------------------|

E|-------------15h17h19p17p15-------------------------------------------|
B|----15h17h19----------------19p17p15----------------------------------|
G|-16----------------------------------16p14p13-------------------------|
D|----------------------------------------------15p13p12----------------|
A|-------------------------------------------------------15p13p12h13p12-|
E|----------------------------------------------------------------------|

E|-----------------------------------------------------|
B|-----------------------------------------------------|
G|-----------------------------------------------------|
D|-----------------------------------------------------|
A|-10h12h13p12p10-9h10p9h10p9-7h9h10/12p10p9--7~-------|
E|-----------------------------------------------------|

E|--------------------------------------------------------------------|
B|--//17~-15-----------------15h17h18p17p15----15---------------------|
G|-----------17-16-17-17~-17----------------17----17p16h17h19p17p16---|
D|--------------------------------------------------------------------|
A|--------------------------------------------------------------------|
E|--------------------------------------------------------------------|

E|----------------------|
B|----------------------|
G|-14h16h17p16p17--12~--|
D|----------------------|
A|----------------------|
E|----------------------|

E|-------------------------16--16-------------------------//22-20-19-22b-|
B|-------15--15----------15--15------------17--17--17--------------------|
G|-----16--16----------16----------------18--18--18----------------------|
D|---15--------------15----------------17--------------------------------|
A|-14--------------14----------------16----------------------------------|
E|-----------------------------------------------------------------------|
Tap to rate this tab
# A B C D E F G H I J K L M N O P Q R S T U V W X Y Z