Song name
# A B C D E F G H I J K L M N O P Q R S T U V W X Y Z

Trivium - Shred Like Me Lick tab

Trivium
"Shred Like Me Lick"
From the Trivium-featured episode of 'Total Guitar TV: Shred Like Me.'
Watch it here:
http://www.youtube.com/watch?v=ih5jBi5laqk&search=Shred%20Me%20Trivium%20Like


e|-------------------------------------------------------------------------|
B|-------------------------------------------------------------------------|
G|-------------------------------------------------------12-14-16-12-14-16-|
D|-------------------------------------12-14-16-12-14-16-------------------|
A|-------------------12-14-15-12-14-15-------------------------------------|
E|-12-14-15-12-14-15-------------------------------------------------------|

e|-------------------------------------------------------------------------|
B|-------------------------------------------------------------------------|
G|-------------------14-16-17-14-16-17-------------------12-14-16-12-14-16-|
D|-14-16-17-14-16-17-------------------12-14-16-12-14-16-------------------|
A|-------------------------------------------------------------------------|
E|-------------------------------------------------------------------------|

e|-------------------------------------------------------------------------|
B|-------------------------------------------------------------------------|
G|-------------------11-12-14-11-12-14---16--15--12--------------15b(P.H.)-|
D|-10-12-14-10-12-14---------------------------------16--15--13------------|
A|-------------------------------------------------------------------------|
E|-------------------------------------------------------------------------|
Tap to rate this tab
 
# A B C D E F G H I J K L M N O P Q R S T U V W X Y Z