Song name
# A B C D E F G H I J K L M N O P Q R S T U V W X Y Z

Trivium - Shred Like Me tab

Part One

e|-------------------------------------------------------------------------|
B|-------------------------------------------------------------------------|
G|-------------------------------------------------------12-14-16-12-14-16-|
D|-------------------------------------12-14-16-12-14-16-------------------|
A|-------------------12-14-15-12-14-15-------------------------------------|
E|-12-14-15-12-14-15-------------------------------------------------------|

e|-------------------------------------------------------------------------|
B|-------------------------------------------------------------------------|
G|-------------------14-16-17-14-16-17-------------------12-14-16-12-14-16-|
D|-14-16-17-14-16-17-------------------12-14-16-12-14-16-------------------|
A|-------------------------------------------------------------------------|
E|-------------------------------------------------------------------------|

e|-------------------------------------------------------------------------|
B|---------------------------------------------------------------15b-------|
G|-------------------11-12-14-11-12-14---16--14--12------------------------|
D|-10-12-14-10-12-14---------------------------------16--14--13------------|
A|-------------------------------------------------------------------------|
E|-------------------------------------------------------------------------|

Part Two

e|-0-3-2-3-0-7-5-7-0-5-3-5-0-8-7-8-0-7-5-7-0-10-8-10-0-8-7-8-0-12-10-12-0--|
B|-------------------------------------------------------------------------|
G|-------------------------------------------------------------------------|
D|-------------------------------------------------------------------------|
A|-------------------------------------------------------------------------|
E|-------------------------------------------------------------------------|

e|-10-8-10-0-14-12-14-0-12-10-12-0-15-14-15-0-14-12-14-0-17-15-17-0--|
B|-------------------------------------------------------------------|
G|-------------------------------------------------------------------|
D|-------------------------------------------------------------------|
A|-------------------------------------------------------------------|
E|-------------------------------------------------------------------|

e|-1915------1519/--
B|-----17--17-------
G|-------16---------
D|------------------
A|------------------
E|------------------
Tap to rate this tab
# A B C D E F G H I J K L M N O P Q R S T U V W X Y Z