Song name
# A B C D E F G H I J K L M N O P Q R S T U V W X Y Z

Trivium - Tread The Floods tab

Intro
Corey
|--------------------------------------------------------------------------------------|
|--------------------------------------------------------------------11------10--------|
|-12-0-0-0-7-0-0-0-8-0-0-0-10-0-0-0-7h8p7------12-0-0-0-7-0-0-0-8--0---8-0-0----7-0-0--|
|-----------------------------------------10-8-----------------------------------------|
|--------------------------------------------------------------------------------------|
|--------------------------------------------------------------------------------------|
|
|Matt
|--------------------------------------------------------------------------------------|
|--------------------------------------------------------------------------------------|
|--------------------------------------------------------------------------------------|
|-5------------------------------------------------------------------------------------|
|-5-------------------------------------------8----------------------------------------|
|-3-------------------------------------------5----------------------------------------|

Corey
|-------------------------------------------------------------------11-10-8--------------------|
|--------------------------------------------------------------------------11-10-8-------------|
|-12-0-0-0-7-0-0-0-8-0-0-0-10-0-0-0-7h8p7------12-0-0-0-7-0-0-0-8-0---------------10-8-7-------|
|-----------------------------------------10-8------------------------------------------10-8-7-|
|----------------------------------------------------------------------------------------------|
|----------------------------------------------------------------------------------------------|
|
|Matt
|----------------------------------------------------------------------------------------------|
|----------------------------------------------------------------------------------------------|
|----------------------------------------------------------------------------------------------|
|----------------------------------------------------------------------------------------------|
|-8-------------------------------------------3---------------------8-------------8------------|
|-6-------------------------------------------1---------------------6-------------5------------|

Do on second time 
Corey
|---------------------------|
|---------------------------|
|-10-8-7--------------------|
|-------10-8-7--------------|
|-------------10-8-6--------|
|-------------------10-8-6--|
|
|Matt
|---------------------------|
|---------------------------|
|---------------------------|
|---------------------------|
|-8-------------------------|
|-5-------------------------|

Verse 
Both guitars                                (1                 (2   trem pick whole bar
|------------------------------------------|------------------|----------------------------|
|------------------------------------------|------------------|----------------------10-13-|
|------------------------------------------|------------------|----------------------------|
|-5------------------10-6-8-5--------------|------------------|-7--6--10--9--10--12--------|
|-5------------------10-6-8-5--------------|-----6------------|----------------------------|
|-3--3-3-3-3-3-3-3-3--8-4-6-3--3-3-3-3-3-3-|-3-4---4-3-1-3-4--|----------------------------|

Pre Chorus
|---------------------------------------------------|
|---------------------------------------------------|
|---------------------------------------------------|
|------------------10-----------------------10------|
|---------------------------------------------------|
|-5-8-5-8-8-11-8-11--8-11-8-5-8-5-8--5-8-5-8--8-5-8-|

|-------------------------------------------------|
|-------------------------------------------------|
|-------------------------------------------------|
|-------------------------------------------------|
|-------------------------18----------------------|
|-11-14-11-14-17-20-17-20----17-20-17-11-14-11-14-|

|-------------------------|
|-------------------------|
|-------------------------|
|-------------------------|
|-------------18----------|
|-11-14-11-14----14-11-14-|

Corey
|-----------------------15-18-15-18-21~~~--|
|------------13-16-13-16-------------------|
|-11-14-11-14------------------------------|
|------------------------------------------|
|------------------------------------------|
|------------------------------------------|
|
|Matt
|-----------------------------------18~~~--|
|-----------------------17-20-17-20--------|
|------------15-18-15-18-------------------|
|-14-17-14-17------------------------------|
|------------------------------------------|
|------------------------------------------|
 Then Verse then Pre Chorus 
Chorus is the same as intro

Solo backing
|----------------------|-------------------------|
|----------------------|-------------------------|
|----------------------|-------------------------|
|----------------------|-------------------------|
|-5------6-------------|---------------5--6--5---|
|-3--3-3-3--3-3-3--3-3-|-3--3-3-3--3-3-3--3--3---|

|----------------------|-------------------------|
|----------------------|-------------------------|
|----------------------|-------------------------|
|-8-----10-------------|---------------8-10--8---|
|-6--6-6-6--6-6-6--6-6-|-6--6-6-6--6-6-6--6--6---|
|----------------------|-------------------------|

|----------------------|-------------------------|
|----------------------|-------------------------|
|----------------------|-------------------------|
|----------------------|-------------------------|
|-5------6-------------|---------------5--6--5---|
|-3--3-3-3--3-3-3--3-3-|-3--3-3-3--3-3-3--3--3---|

|----------------------|-------------------------|
|----------------------|-------------------------|
|----------------------|-8---5-----7---3-----5---|
|-8------10------------|-------------------------|
|-6--6-6-6--6-6-6--6-6-|-6---3-----5---1-----3---|
|----------------------|-------------------------|

|----------------------|-------------------------|
|----------------------|-------------------------|
|----------------------|-------------------------|
|----------------------|-------------------------|
|-5------6-------------|-------------------------|
|-3--3-3-3--3-3-3--3-3-|-3--3-3-3--3-3-3--3--3---|

|----------------------|-------------------------|
|----------------------|-------------------------|
|----------------------|-------------------------|
|-8------10------------|---------------8--10-8---|
|-6--6-6-6--6-6-6--6-6-|-6--6-6-6--6-6-6--6--6---|
|----------------------|-------------------------|

|----------------------|-------------------------|
|----------------------|-------------------------|
|----------------------|-------------------------|
|----------------------|-------------------------|
|-5------6-------------|---------------5--6--5---|
|-3--3-3-3--3-3-3--3-3-|-3--3-3-3--3-3-3--3--3---|

|----------------------|-------------------------|
|----------------------|-------------------------|
|----------------------|-8---5-----7---3-----5---|
|-8------------10------|-------------------------|
|-6--6-6-6--6-6-6--6-6-|-6---3-----5---1-----3---|
|----------------------|-------------------------|

|----------------------|-------------------------|
|----------------------|-------------------------|
|----------------------|-------------------------|
|----------------------|-------------------------|
|-5------6-------------|-------------------------|
|-3--3-3-3--3-3-3--3-3-|-3--3-3-3--3-3-3--3--3---|

|----------------------|
|----------------------|
|----------------------|
|-8-----10-------------|
|-6--6-6-6--6-6-6--6-6-|
|----------------------|

Solo
Corey
|-11-11-----11-11-10-10-----10-10-8-8-----|
|-------8-8-------------8-8-----------8-8-|
|-----------------------------------------|
|-----------------------------------------|
|-----------------------------------------|
|-----------------------------------------|

|-8-8-----8-8-6-6-----6-6-5-5-----|
|-----6-6---------6-6---------6-6-|
|---------------------------------|
|---------------------------------|
|---------------------------------|
|---------------------------------|

|-6-6-----6-6-5-5-----6-5---------|
|-----6-6---------6-6-----6-6fb-r-|
|---------------------------------|
|---------------------------------|
|---------------------------------|
|---------------------------------|

|---------------------------------|
|---------------------------------|
|---------------------------------|
|---------------------------------|
|------3-5-6-5(tr6)---------------|
|-3-5-6---------------------------|

|---------------------------------|
|---------------------------------|
|-------5-7-8-7----5----7---------|
|-5-7-8---------------------------|
|---------------------------------|
|---------------------------------|

|---------------------------------|
|-8----6--------------------------|
|-----------8----7----------------|
|---------------------------------|
|---------------------------------|
|---------------------------------|

|---------------------------------|
|---------------------------------|
|--8-7-8-5-8-7-8---8-7-8-5-8-7-8--|
|-5--------------5----------------|
|---------------------------------|
|---------------------------------|

|---------------------------------|
|-----------------8-6-----6-------|
|---8-7-8-5-8-7-8-----8-7---8-7-5-|
|-5-------------------------------|
|---------------------------------|
|---------------------------------|

|---------------------------------|
|---------------------------------|
|---8-7-8-5-8-7-8---8-7-8-5-8-7-8-|
|-5---------------5---------------|
|---------------------------------|
|---------------------------------|

|---------------------------------|
|---------------------------------|
|--------7-8-10---------8-10-12---|
|-7-8-10--------8-10-12-----------|
|---------------------------------|
|---------------------------------|

|---------------------------------|
|---------------------------------|
|---------12-14-15--------14-15-17|
|-12-13-15--------13-15-17--------|
|---------------------------------|
|---------------------------------|

|---------------------------------------------|
|---16-15-16-13-16-15-16--16-15-16-13-16-15-16|
|-12--------------------12--------------------|
|---------------------------------------------|
|---------------------------------------------|
|---------------------------------------------|

|-----------------------15-13------13---------|
|---16-15-16-13-16-15-16-----16-15----16-15-13|
|-12------------------------------------------|
|---------------------------------------------|
|---------------------------------------------|
|---------------------------------------------|

|---------------------------------------------|
|---16-15-16-13-16-15-16--16-15-16-13-16-15-16|
|-12--------------------12--------------------|
|---------------------------------------------|
|---------------------------------------------|
|---------------------------------------------|

|----------------------------------------------|
|-15-15-16-16-13-13-15-15-11-11-13-13-10-------|
|----------------------------------------------|
|----------------------------------------------|
|----------------------------------------------|
|----------------------------------------------|

|---------------------------------|
|-8--10--11--15--13--11--10--11---|
|---------------------------------|
|-5---7---8--12--10---8---7---8---|
|---------------------------------|
|---------------------------------|

|---------------------------------|
|-8--10--11--15--13--15--18--16-15|
|---------------------------------|
|-5---7---8--12--10--12--15--13-12|
|---------------------------------|
|---------------------------------|

Riff after Solo (drum bit)
|-----------------------|----------------------|
|-----------------------|----------------------|
|-8--5-----7--3-----5---|-8--5-----7--3--------|
|-----------------------|-------------------5--|
|-6--3-----5--1-----3---|-6--3-----5--1--------|
|-----------------------|-------------------3--|


Then Verse, Pre chorus, Verse, Pre chorus and Chorus.
Tap to rate this tab
# A B C D E F G H I J K L M N O P Q R S T U V W X Y Z