Song name
# A B C D E F G H I J K L M N O P Q R S T U V W X Y Z

Trivium - To The Rats tab

Gtr I (E A D G B E) - 'Untitled'
Gtr II (E A D G B E) - 'Untitled'
Gtr III (E A D G B E) - 'Untitled'


   Intro
    Very fast thrash Q=208
    B5                                                        C5
   4/4
    Gtr I
        PM----|   PM--------------|
    S S S S S S S S S S S S S S S S   S S S S S S S S S S S S Q
||----------------------------------|-----------------------------||
||o---------------------------------|----------------------------o||
||----------------------------------|-----------------------------||
||--------------3-------------------|-------------------------5---||
||o-5p2-2-2-2-2---2-2-2-2-2-2-2-2-2-|-5p2-2-2-2-2-3p2-2-2-2-2-3--o||
||----------------------------------|-----------------------------||


    B5                                                        C5
    Gtrs I, II
        PM----|   PM--------------|
    S S S S S S S S S S S S S S S S   S S S S S S S S S S S S Q
||----------------------------------|-----------------------------||
||o---------------------------------|----------------------------o||
||----------------------------------|-----------------------------||
||--------------3-------------------|-------------------------5---||
||o-5p2-2-2-2-2---2-2-2-2-2-2-2-2-2-|-5p2-2-2-2-2-3p2-2-2-2-2-3--o||
||----------------------------------|-----------------------------||


  B5N.B5C5    B5                  C5   B5N.B5D5    B5                  Eb5
                         2/4          4/4                     2/4
    PM|         PM--------------|        PM|         PM--------------|
  E E E E +E  E S S S S   S S S S Q    E E E E +E  E S S S S   S S S S Q
|-----------------------|------------|-----------------------|------------|
|-----------------------|------------|-----------------------|------------|
|-----------------------|------------|-----------------------|------------|
|-4---4-5-(5)-4---------|---------5--|-4---4-7-(7)-4---------|---------8--|
|-2-0-2-3-(3)-2-2-2-2-2-|-2-2-2-2-3--|-2-0-2-5-(5)-2-2-2-2-2-|-2-2-2-2-6--|
|-----------------------|------------|-----------------------|------------|


  B5N.B5C5    B5                  C5   B5N.B5Eb5   B5                  D5
 4/4                     2/4          4/4                     2/4
    PM|         PM--------------|        PM|         PM--------------|
  E E E E +E  E S S S S   S S S S Q    E E E E +E  E S S S S   S S S S Q
|-----------------------|------------|-----------------------|--------------|
|-----------------------|------------|-----------------------|--------------|
|-----------------------|------------|-----------------------|--------------|
|-4---4-5-(5)-4---------|---------5--|-4---4-8-(8)-4---------|---------7----|
|-2-0-2-3-(3)-2-2-2-2-2-|-2-2-2-2-3--|-2-0-2-6-(6)-2-2-2-2-2-|-2-2-2-2-5----|
|-----------------------|------------|-----------------------|--------------|


   Verse 1
    B5                                                            C5
        PM----|   PM----------------|
    S S S S S S S S   S S S S S S S S   S S S S S S S S   S S S S Q    4x
||------------------|-----------------|-----------------|--------------||
||o-----------------|-----------------|-----------------|-------------o||
||------------------|-----------------|-----------------|--------------||
||--------------3---|-----------------|-----------------|---------5----||
||o-5p2-2-2-2-2---2-|-2-2-2-2-2-2-2-2-|-5p2-2-2-2-2-3p2-|-2-2-2-2-3---o||
||------------------|-----------------|-----------------|--------------||


  B5N.B5C5    B5                  C5   B5N.B5D5    B5                  Eb5
 4/4                     2/4          4/4                     2/4
    PM|         PM--------------|        PM|         PM--------------|
  E E E E +E  E S S S S   S S S S Q    E E E E +E  E S S S S   S S S S Q
|-----------------------|------------|-----------------------|--------------|
|-----------------------|------------|-----------------------|--------------|
|-----------------------|------------|-----------------------|--------------|
|-4---4-5-(5)-4---------|---------5--|-4---4-7-(7)-4---------|---------8----|
|-2-0-2-3-(3)-2-2-2-2-2-|-2-2-2-2-3--|-2-0-2-5-(5)-2-2-2-2-2-|-2-2-2-2-6----|
|-----------------------|------------|-----------------------|--------------|


  B5N.B5C5    B5                  C5   B5N.B5Eb5   B5                  D5
 4/4                     2/4          4/4                     2/4
    PM|         PM--------------|        PM|         PM--------------|
  E E E E +E  E S S S S   S S S S Q    E E E E +E  E S S S S   S S S S Q
|-----------------------|------------|-----------------------|--------------|
|-----------------------|------------|-----------------------|--------------|
|-----------------------|------------|-----------------------|--------------|
|-4---4-5-(5)-4---------|---------5--|-4---4-8-(8)-4---------|---------7----|
|-2-0-2-3-(3)-2-2-2-2-2-|-2-2-2-2-3--|-2-0-2-6-(6)-2-2-2-2-2-|-2-2-2-2-5----|
|-----------------------|------------|-----------------------|--------------|


  B5A5B5C5/G  B5/F#       C5/G B5A5B5D5/A  B5/F#       Eb5/Bb
 4/4                 2/4      4/4                 2/4
    PM|         PM------|        PM|         PM------|
  E E E E +E  E E E   E E Q    E E E E +E  E E E   E E Q
|-------------------|--------|-------------------|--------|
|-------------------|--------|-------------------|--------|
|-------------------|--------|-------------------|--------|
|-4---4-5-(5)-4-----|-----5--|-4---4-7-(7)-4-----|-----8--|
|-2-0-2-3-(3)-2-2-2-|-2-2-3--|-2-0-2-5-(5)-2-2-2-|-2-2-6--|
|-2-0-2-3-(3)-2-2-2-|-2-2-3--|-2-0-2-5-(5)-2-2-2-|-2-2-6--|


  B5A5B5C5/G  B5/F#       C5/G B5A5B5Eb5/BbB5/F#       D5/A
 4/4                 2/4      4/4                 2/4
    PM|         PM------|        PM|         PM------|
  E E E E +E  E E E   E E Q    E E E E +E  E E E   E E Q
|-------------------|--------|-------------------|--------|
|-------------------|--------|-------------------|--------|
|-------------------|--------|-------------------|--------|
|-4---4-5-(5)-4-----|-----5--|-4---4-8-(8)-4-----|-----7--|
|-2-0-2-3-(3)-2-2-2-|-2-2-3--|-2-0-2-6-(6)-2-2-2-|-2-2-5--|
|-2-0-2-3-(3)-2-2-2-|-2-2-3--|-2-0-2-6-(6)-2-2-2-|-2-2-5--|


 Pre-Chorus 1
  Bb5
 4/4
  Gtr I
     PM      PM     PM------------|
  Q  E E +E  E Q    E E E E E E E E
|-----------------|-----------------|
|-----------------|-----------------|
|-----------------|-----------------|
|-3--3-2-(2)-2-3--|-3-3-3-3-3-3-3-3-|
|-1--1-1-(1)-1-1--|-1-1-1-1-1-1-1-1-|
|-----------------|-----------------|


   Chorus 1
    C5/G
    Gtr I
       PM      PM      PM-|   PM    PM|
    Q  E E +E  E Q     E  E E E E E E E
||------------------|-------------------|
||o-----------------|-------------------|
||------------------|-------------------|
||--5--5-3-(3)-3-5--|--5--5-5---3-5-5-5-|
||o-3--3-3-(3)-3-3--|--3--3-3-3-3-3-3-3-|
||------------------|-------------------|
|
|   Gtr II
|   W                 +W
||------------------|-------------------|
||o-----------------|-------------------|
||------------------|-------------------|
||--5---------------|-(5)---------------|
||o-3---------------|-(3)---------------|
||--3---------------|-(3)---------------|


  A5
     PM      PM      PM-|   PM      PM|
  Q  E E +E  E Q     E  E E E E  E  E E
|-----------------|---------------------|
|-----------------|---------------------|
|-2----2-(2)------|---------------------|
|-3--3-2-(2)-2-3--|--3--3-3---3p=2--2-2-|
|-0--0-0-(0)-0-0--|--0--0-0-0-0-(0)-0-0-|
|-----------------|---------------------|
|
| W                 +W
|-----------------|---------------------|
|-----------------|---------------------|
|-2---------------|-(2)-----------------|
|-2---------------|-(2)-----------------|
|-0---------------|-(0)-----------------|
|-----------------|---------------------|


                                   1.                                   2.
  D5          C5                   Bb5
        PM|               PM|         PM      PM      PM-------------|
  Q  Q  E E E E   +Q   Q  E E Q    Q  E E +E  E Q     E  E E E E E E E
|---------------|----------------|-----------------|-------------------|---||
|---------------|----------------|-----------------|-------------------|--o||
|---------------|----------------|-----------------|-------------------|---||
|-7--7--7-7-7s5-|-(5)--5--5-5-5--|-3--3-2-(2)-2-3--|--3--3-3-3-3-3-3-3-|---||
|-5--5--5-5-5s3-|-(3)--3--3-3-3--|-1--1-1-(1)-1-1--|--1--1-1-1-1-1-1-1-|--o||
|---------------|----------------|-----------------|-------------------|---||
|
|       PM|               PM|
| H     E E E E   +H      E E Q    W                 +W
|---------------|----------------|-----------------|-------------------|---||
|---------------|----------------|-----------------|-------------------|--o||
|-7---------7s5-|-(5)---------5--|-3---------------|-(3)---------------|---||
|-7-----7-7-7s5-|-(5)-----5-5-5--|-3---------------|-(3)---------------|---||
|-5-----5-5-5s3-|-(3)-----3-3-3--|-1---------------|-(1)---------------|--o||
|---------------|----------------|-----------------|-------------------|---||


   Verse 2
    B5                                                        C5
    Gtrs I, II
        PM----|   PM--------------|
    S S S S S S S S S S S S S S S S   S S S S S S S S S S S S Q     4x
||----------------------------------|-------------------------------||
||o---------------------------------|------------------------------o||
||----------------------------------|-------------------------------||
||--------------3-------------------|-------------------------5-----||
||o-5p2-2-2-2-2---2-2-2-2-2-2-2-2-2-|-5p2-2-2-2-2-3p2-2-2-2-2-3----o||
||----------------------------------|-------------------------------||


  B5N.B5C5    B5                  C5   B5N.B5D5    B5                  Eb5
                         2/4          4/4                     2/4
    PM|         PM--------------|        PM|         PM--------------|
  E E E E +E  E S S S S   S S S S Q    E E E E +E  E S S S S   S S S S Q
|-----------------------|------------|-----------------------|------------|
|-----------------------|------------|-----------------------|------------|
|-----------------------|------------|-----------------------|------------|
|-4---4-5-(5)-4---------|---------5--|-4---4-7-(7)-4---------|---------8--|
|-2-0-2-3-(3)-2-2-2-2-2-|-2-2-2-2-3--|-2-0-2-5-(5)-2-2-2-2-2-|-2-2-2-2-6--|
|-----------------------|------------|-----------------------|------------|


  B5N.B5C5    B5                  C5   B5N.B5Eb5   B5                  D5
 4/4                     2/4          4/4                     2/4
    PM|         PM--------------|        PM|         PM--------------|
  E E E E +E  E S S S S   S S S S Q    E E E E +E  E S S S S   S S S S Q
|-----------------------|------------|-----------------------|--------------|
|-----------------------|------------|-----------------------|--------------|
|-----------------------|------------|-----------------------|--------------|
|-4---4-5-(5)-4---------|---------5--|-4---4-8-(8)-4---------|---------7----|
|-2-0-2-3-(3)-2-2-2-2-2-|-2-2-2-2-3--|-2-0-2-6-(6)-2-2-2-2-2-|-2-2-2-2-5----|
|-----------------------|------------|-----------------------|--------------|


  EbA5B5C5/G  B5/F#       C5/G B5A5B5D5/A  B5/F#       Eb5/Bb
 4/4                 2/4      4/4                 2/4
    PM|         PM------|        PM|         PM------|
  E E E E +E  E E E   E E Q    E E E E +E  E E E   E E Q
|-------------------|--------|-------------------|--------|
|-------------------|--------|-------------------|--------|
|-------------------|--------|-------------------|--------|
|-4---4-5-(5)-4-----|-----5--|-4---4-7-(7)-4-----|-----8--|
|-2-0-2-3-(3)-2-2-2-|-2-2-3--|-2-0-2-5-(5)-2-2-2-|-2-2-6--|
|-2-0-2-3-(3)-2-2-2-|-2-2-3--|-2-0-2-5-(5)-2-2-2-|-2-2-6--|


  EbA5EbC5/G  B5/F#       C5/G EbA5B5D5/A  B5/F#       D5/A
 4/4                 2/4      4/4                 2/4
    PM|         PM------|        PM|         PM------|
  E E E E +E  E E E   E E Q    E E E E +E  E E E   E E Q
|-------------------|--------|-------------------|--------|
|-------------------|--------|-------------------|--------|
|-------------------|--------|-------------------|--------|
|-4---4-5-(5)-4-----|-----5--|-4---4-8-(8)-4-----|-----7--|
|-2-0-2-3-(3)-2-2-2-|-2-2-3--|-2-0-2-6-(6)-2-2-2-|-2-2-5--|
|-2-0-2-3-(3)-2-2-2-|-2-2-3--|-2-0-2-6-(6)-2-2-2-|-2-2-5--|


 Pre-Chorus 2
  Bb5
 4/4
  Gtr I
     PM      PM     PM------------|
  Q  E E +E  E Q    E E E E E E E E
|-----------------|-----------------|
|-----------------|-----------------|
|-----------------|-----------------|
|-3--3-2-(2)-2-3--|-3-3-3-3-3-3-3-3-|
|-1--1-1-(1)-1-1--|-1-1-1-1-1-1-1-1-|
|-----------------|-----------------|


   Chorus 2
    C5/G
    Gtr I
       PM      PM      PM-|   PM    PM|
    Q  E E +E  E Q     E  E E E E E E E
||------------------|-------------------|
||o-----------------|-------------------|
||------------------|-------------------|
||--5--5-3-(3)-3-5--|--5--5-5---3-5-5-5-|
||o-3--3-3-(3)-3-3--|--3--3-3-3-3-3-3-3-|
||------------------|-------------------|
|
|   Gtr II
|   W                 +W
||------------------|-------------------|
||o-----------------|-------------------|
||------------------|-------------------|
||--5---------------|-(5)---------------|
||o-3---------------|-(3)---------------|
||--3---------------|-(3)---------------|


  A5
     PM      PM      PM-|   PM      PM|
  Q  E E +E  E Q     E  E E E E  E  E E
|-----------------|----------------------|
|-----------------|----------------------|
|-2----2-(2)------|----------------------|
|-3--3-2-(2)-2-3--|--3--3-3---3p=2--2-2--|
|-0--0-0-(0)-0-0--|--0--0-0-0-0-(0)-0-0--|
|-----------------|----------------------|
|
| W                 +W
|-----------------|----------------------|
|-----------------|----------------------|
|-2---------------|-(2)------------------|
|-2---------------|-(2)------------------|
|-0---------------|-(0)------------------|
|-----------------|----------------------|


                                   1.                                   2.
  D5          C5                   Bb5
        PM|               PM|         PM      PM      PM-------------|
  Q  Q  E E E E   +Q   Q  E E Q    Q  E E +E  E Q     E  E E E E E E E
|---------------|----------------|-----------------|-------------------|---||
|---------------|----------------|-----------------|-------------------|--o||
|---------------|----------------|-----------------|-------------------|---||
|-7--7--7-7-7s5-|-(5)--5--5-5-5--|-3--3-2-(2)-2-3--|--3--3-3-3-3-3-3-3-|---||
|-5--5--5-5-5s3-|-(3)--3--3-3-3--|-1--1-1-(1)-1-1--|--1--1-1-1-1-1-1-1-|--o||
|---------------|----------------|-----------------|-------------------|---||
|
|       PM|               PM|
| H     E E E E   +H      E E Q    W                 +W
|---------------|----------------|-----------------|-------------------|---||
|---------------|----------------|-----------------|-------------------|--o||
|-7---------7s5-|-(5)---------5--|-3---------------|-(3)---------------|---||
|-7-----7-7-7s5-|-(5)-----5-5-5--|-3---------------|-(3)---------------|---||
|-5-----5-5-5s3-|-(3)-----3-3-3--|-1---------------|-(1)---------------|--o||
|---------------|----------------|-----------------|-------------------|---||


 Breakdown 1
  N.C.
  Gtr I
  PM--|   PM--|   PM--|   PM--|     PM--|   PM--|   PM--|   PM--|
  S S S S S S S S S S S S S S S S   S S S S S S S S S S S S S S S S
|---------------------------------|---------------------------------|
|---------------------------------|---------------------------------|
|---------------------------------|---------------------------------|
|---------------------------------|---------------------------------|
|---------------------------------|---------------------------------|
|-0-0-0---0-0-0---0-0-0---0-0-0---|-0-0-0---0-0-0---0-0-0---0-0-0---|


                                    Db5EbbDb5Ab5BbbGb5Abb5
  PM--|   PM--|   PM--|   PM--|              PM-------|
  S S S S S S S S S S S S S S S S   E  E  Q  E  E  E  E
|---------------------------------|----------------------|
|---------------------------------|----------------------|
|---------------------------------|-7s=8s=7--------------|
|---------------------------------|-6s=7s=6--------------|
|---------------------------------|-5s=6s=5--6--7--4--5--|
|-0-0-0---0-0-0---0-0-0---0-0-0---|----------5--6--3--4--|


  N.C.
  PM--|   PM--|   PM--|   PM--|     PM--|   PM--|   PM--|   PM--|
  S S S S S S S S S S S S S S S S   S S S S S S S S S S S S S S S S
|---------------------------------|---------------------------------|
|---------------------------------|---------------------------------|
|---------------------------------|---------------------------------|
|---------------------------------|---------------------------------|
|---------------------------------|---------------------------------|
|-0-0-0---0-0-0---0-0-0---0-0-0---|-0-0-0---0-0-0---0-0-0---0-0-0---|
|
| E   E     Q       E     E   Q     E   E     Q       E   E     Q
|---------------------------------|---------------------------------|
|---------------------------------|---------------------------------|
|---------------------------------|---------------------------------|
|---------------------------------|---------------------------------|
|-2-----------------2-------------|-2-----------------2-------------|
|-0-----------------0-------------|-0-----------------0-------------|


                                    Db5EbbDb5Ab5BbbGb5Abb5
  PM--|   PM--|   PM--|   PM--|              PM-------|
  S S S S S S S S S S S S S S S S   E  E  Q  E  E  E  E
|---------------------------------|----------------------|
|---------------------------------|----------------------|
|---------------------------------|-7s=8s=7--------------|
|---------------------------------|-6s=7s=6--------------|
|---------------------------------|-5s=6s=5--6--7--4--5--|
|-0-0-0---0-0-0---0-0-0---0-0-0---|----------5--6--3--4--|
|
|                                            PM-------|
| E   E     Q       E   E     Q     E  E  Q  E  E  E  E
|---------------------------------|----------------------|
|---------------------------------|----------------------|
|---------------------------------|-7s=8s=7--------------|
|---------------------------------|-6s=7s=6--------------|
|-2-----------------2-------------|-5s=6s=5--6--7--5--6--|
|-0-----------------0-------------|----------5--6--4--5--|


    N.C.
    Gtrs I, II
    PM--|   PM--|   PM--|   PM--|     PM--|   PM--|   PM--|   PM--|
    S S S S S S S S S S S S S S S S   S S S S S S S S S S S S S S S S
||----------------------------------|---------------------------------|
||o---------------------------------|---------------------------------|
||----------------------------------|---------------------------------|
||----------------------------------|---------------------------------|
||o---------------------------------|---------------------------------|
||--0-0-0---0-0-0---0-0-0---0-0-0---|-0-0-0---0-0-0---0-0-0---0-0-0---|


                                    Db5EbbDb5Ab5BbbGb5Abb5
  PM--|   PM--|   PM--|   PM--|              PM-------|
  S S S S S S S S S S S S S S S S   E  E  Q  E  E  E  E
|---------------------------------|-------------------------||
|---------------------------------|------------------------o||
|---------------------------------|-7s=8s=7-----------------||
|---------------------------------|-6s=7s=6-----------------||
|---------------------------------|-5s=6s=5--6--7--4--5----o||
|-0-0-0---0-0-0---0-0-0---0-0-0---|----------5--6--3--4-----||


 Guitar Solo 1 (Beaulieu)
  N.C.    F5     N.C.    F5     N.C.   F5     N.C.   F5
  Gtr I
   T         T         T         T
   |-----------9:8------------|  |----------9:8----------|
   S S  S    S S    S  S   S  S  S S S    S S   S  S   S S
|-13p7h10h==13p7h==10h13p==7h10----------------------------|
|-------------------------------12p6h9h==12p6h==9h12p==6h9-|
|----------------------------------------------------------|
|----------------------------------------------------------|
|----------------------------------------------------------|
|----------------------------------------------------------|
|
| Gtr II
|  T         T         T         T
|  |-----------9:8------------|  |----------9:8----------|
|  S S  S    S S    S  S   S  S  S S S    S S   S  S   S S
|-10-4h=7h==10p4h===7h10p==4h=7----------------------------|
|--------------------------------9p3h6h===9p3h==6h=9p==3h6-|
|----------------------------------------------------------|
|----------------------------------------------------------|
|----------------------------------------------------------|
|----------------------------------------------------------|
|
| Gtr III
|  PM-------------------------------------------------------
|  E      E      E       E       E     E      E      E
|----------------------------------------------------------|
|----------------------------------------------------------|
|----------------------------------------------------------|
|----------------------------------------------------------|
|---------3--------------3-------------3-------------3-----|
|--0------1------0-------1-------0-----1------0------1-----|


  N.C.   F5     N.C.   F5    N.C.   F5     G5
                              T
   |----------9:8----------|  |---------9:8---------|
   S S S    S S   S  S   S S  S S S    S S   S  S S S
|-------------------------------------------------------|
|----------------------------12p6h9h==12p6h==9h12p6h9---|
|-10p4h7h==10p4h==7h10p==4h7----------------------------|
|-------------------------------------------------------|
|-------------------------------------------------------|
|-------------------------------------------------------|
|
|                             T
|  |----------9:8----------|  |---------9:8---------|
|  S S S    S S   S  S   S S  S S S    S S   S  S S S
|-------------------------------------------------------|
|-----------------------------9p3h6h===9p3h==6h=9p3h6---|
|--7p1h4h===7p1h==4h=7p==1h4----------------------------|
|-------------------------------------------------------|
|-------------------------------------------------------|
|-------------------------------------------------------|
|
|-----------------------------------|
|  E     E      E      E      E     E      Q
|-------------------------------------------------------|
|-------------------------------------------------------|
|-------------------------------------------------------|
|-------------------------------------------------------|
|--------3-------------3------------3------5------------|
|--0-----1------0------1------0-----1------3------------|


  N.C.     F5      N.C.    F5      N.C.    F5     N.C.    F5
   T          T          T          T
   |-------------9:8-------------|  |-----------9:8-----------|
   S  S  S    S  S    S  S    S  S  S S  S    S S    S  S   S S
|-16p10h13h==16p10h==13h16p==10h13------------------------------|
|----------------------------------15p9h12h==15p9h==12h15p==6h9-|
|---------------------------------------------------------------|
|---------------------------------------------------------------|
|---------------------------------------------------------------|
|---------------------------------------------------------------|
|
|  T          T          T          T
|  |-------------9:8-------------|  |-----------9:8-----------|
|  S  S  S    S  S    S  S    S  S  S S  S    S S    S  S   S S
|-13p=7h10h==13p=7h==10h13p===7h10------------------------------|
|----------------------------------12p6h=9h==12p6h===9h12p==6h9-|
|---------------------------------------------------------------|
|---------------------------------------------------------------|
|---------------------------------------------------------------|
|---------------------------------------------------------------|
|
|  PM------------------------------------------------------------
|  E       E       E       E        E      E      E       E
|---------------------------------------------------------------|
|---------------------------------------------------------------|
|---------------------------------------------------------------|
|---------------------------------------------------------------|
|----------3---------------3---------------3--------------3-----|
|--0-------1-------0-------1--------0------1------0-------1-----|


  N.C.    F5     N.C.    F5     N.C.    F5     G5
                                 T
   |-----------9:8------------|  |----------9:8----------|
   S S  S    S S    S  S   S  S  S S  S    S S    S  S S S
|------------------------------------------------------------|
|-------------------------------15p9h12h==15p9h==12h15p6h9---|
|-13p7h10h==13p7h==10h13p==7h10------------------------------|
|------------------------------------------------------------|
|------------------------------------------------------------|
|------------------------------------------------------------|
|
|                                T
|  |-----------9:8------------|  |----------9:8----------|
|  S S  S    S S    S  S   S  S  S S  S    S S    S  S S S
|------------------------------------------------------------|
|-------------------------------12p6h=9h==12p6h===9h12p6h9---|
|-10p4h=7h==10p4h===7h10p==4h=7------------------------------|
|------------------------------------------------------------|
|------------------------------------------------------------|
|------------------------------------------------------------|
|
|---------------------------------------|
|  E      E      E       E       E      E      Q
|------------------------------------------------------------|
|------------------------------------------------------------|
|------------------------------------------------------------|
|------------------------------------------------------------|
|---------3--------------3--------------3------5-------------|
|--0------1------0-------1-------0------1------3-------------|


  N.C.     F5      N.C.    F5      N.C.     F5      N.C.    F5
   T          T          T          T
   |-------------9:8-------------|  |-------------9:8-------------|
   S  S  S    S  S    S  S    S  S  S  S  S    S  S    S  S    S  S
|-19p13h16h==19p13h==16h19p==13h16----------------------------------|
|----------------------------------18p12h15h==18p12h==15h18p==12h15-|
|-------------------------------------------------------------------|
|-------------------------------------------------------------------|
|-------------------------------------------------------------------|
|-------------------------------------------------------------------|
|
|  T          T          T          T
|  |-------------9:8-------------|  |-------------9:8-------------|
|  S  S  S    S  S    S  S    S  S  S  S  S    S  S    S  S    S  S
|-16p10h13h==16p10h==13h16p==10h13----------------------------------|
|----------------------------------15p=9h12h==15p=9h==12h15p===6h=9-|
|-------------------------------------------------------------------|
|-------------------------------------------------------------------|
|-------------------------------------------------------------------|
|-------------------------------------------------------------------|
|
|  PM----------------------------------------------------------------
|  E       E       E       E        E       E       E       E
|-------------------------------------------------------------------|
|-------------------------------------------------------------------|
|-------------------------------------------------------------------|
|-------------------------------------------------------------------|
|----------3---------------3----------------3---------------3-------|
|--0-------1-------0-------1--------0-------1-------0-------1-------|


  N.C.     F5      N.C.    F5      N.C.     F5      G5
                                    T
   |-------------9:8-------------|  |------------9:8------------|
   S  S  S    S  S    S  S    S  S  S  S  S    S  S    S  S  S  S
|-------------------------------------------------------------------|
|----------------------------------18p12h15h==18p12h==15h18p12h15---|
|-16p10h13h==16p10h==13h16p==10h13----------------------------------|
|-------------------------------------------------------------------|
|-------------------------------------------------------------------|
|-------------------------------------------------------------------|
|
|                                   T
|  |-------------9:8-------------|  |------------9:8------------|
|  S  S  S    S  S    S  S    S  S  S  S  S    S  S    S  S  S  S
|-------------------------------------------------------------------|
|----------------------------------15p=9h12h==15p=9h==12h15p=6h=9---|
|-13p=7h10h==13p=7h==10h13p===7h10----------------------------------|
|-------------------------------------------------------------------|
|-------------------------------------------------------------------|
|-------------------------------------------------------------------|
|
|-------------------------------------------|
|  E       E       E       E        E       E       Q
|-------------------------------------------------------------------|
|-------------------------------------------------------------------|
|-------------------------------------------------------------------|
|-------------------------------------------------------------------|
|----------3---------------3----------------3-------5---------------|
|--0-------1-------0-------1--------0-------1-------3---------------|


  N.C.     F5      N.C.    F5      N.C.     Gb5     N.C.    F5
   T          T          T          T
   |-------------9:8-------------|  |-------------9:8-------------|
   S  S  S    S  S    S  S    S  S  S  S  S    S  S    S  S    S  S
|-22p16h19h==22p16h==19h22p==16h19----------------------------------|
|----------------------------------21p15h18h==21p15h==18h21p==15h18-|
|-------------------------------------------------------------------|
|-------------------------------------------------------------------|
|-------------------------------------------------------------------|
|-------------------------------------------------------------------|
|
|  T          T          T          T
|  |-------------9:8-------------|  |-------------9:8-------------|
|  S  S  S    S  S    S  S    S  S  S  S  S    S  S    S  S    S  S
|-16p10h13h==16p10h==13h16p==10h13----------------------------------|
|----------------------------------15p=9h12h==15p=9h==12h15p===6h=9-|
|-------------------------------------------------------------------|
|-------------------------------------------------------------------|
|-------------------------------------------------------------------|
|-------------------------------------------------------------------|
|
|  PM----------------------------------------------------------------
|  E       E       E       E        E       E       E       E
|-------------------------------------------------------------------|
|-------------------------------------------------------------------|
|-------------------------------------------------------------------|
|-------------------------------------------------------------------|
|----------3---------------3----------------3---------------3-------|
|--0-------1-------0-------1--------0-------1-------0-------1-------|


  N.C.     F5       N.C.     F5       N.C.     F5       G5
                                       |-----3-----|     |--3--|
   S     S  S  S     S     S  S  S     E     E     E     E  E  E
|-20----19-18-17----20----19-18-17--------------------------------|
|-------------------------------------20----19----17----20-19-----|
|-------------------------------------------------------------17--|
|-----------------------------------------------------------------|
|-----------------------------------------------------------------|
|-----------------------------------------------------------------|
|
|                             |---3----|  |-----3-----|
|  S  S     S  S  S  S  S  S  E     E  E  E     E     E
|-17-16----13-12-17-16-13-13--------------------------------------|
|----------------------------17----15-13-17----15----13-----------|
|-----------------------------------------------------------------|
|-----------------------------------------------------------------|
|-----------------------------------------------------------------|
|-----------------------------------------------------------------|
|
|----------------------------------------------|
|  E        E        E        E        E        E        Q
|-----------------------------------------------------------------|
|-----------------------------------------------------------------|
|-----------------------------------------------------------------|
|-----------------------------------------------------------------|
|-----------3-----------------3-----------------3--------5--------|
|--0--------1--------0--------1--------0--------1--------3--------|


 Breakdown 2
  N.C.
   W                                  +W
|----------------------------------|------------------------------------|
|----------------------------------|------------------------------------|
|-16-------------------------------|-(16)-------------------------------|
|----------------------------------|------------------------------------|
|----------------------------------|------------------------------------|
|----------------------------------|------------------------------------|
|
|  W                                  +W
|----------------------------------|------------------------------------|
|----------------------------------|------------------------------------|
|-16-------------------------------|-(16)-------------------------------|
|----------------------------------|------------------------------------|
|----------------------------------|------------------------------------|
|----------------------------------|------------------------------------|
|
|  PM--|   PM--|   PM--|   PM--|       PM---|   PM--|   PM--|   PM--|
|  S S S S S S S S S S S S S S S S     S  S S S S S S S S S S S S S S S
|----------------------------------|------------------------------------|
|----------------------------------|------------------------------------|
|----------------------------------|------------------------------------|
|----------------------------------|------------------------------------|
|----------------------------------|------------------------------------|
|--0-0-0---0-0-0---0-0-0---0-0-0---|---0--0-0---0-0-0---0-0-0---0-0-0---|


                                       Db5EbbDb5Ab5BbbGb5Abb5
   +W
|------------------------------------|----------------------|
|------------------------------------|----------------------|
|-(16)-------------------------------|----------------------|
|------------------------------------|----------------------|
|------------------------------------|----------------------|
|------------------------------------|----------------------|
|
|  +W
|------------------------------------|----------------------|
|------------------------------------|----------------------|
|-(16)-------------------------------|----------------------|
|------------------------------------|----------------------|
|------------------------------------|----------------------|
|------------------------------------|----------------------|
|
|   PM---|   PM--|   PM--|   PM--|              PM-------|
|   S  S S S S S S S S S S S S S S S   E  E  Q  E  E  E  E
|------------------------------------|----------------------|
|------------------------------------|----------------------|
|------------------------------------|-7s=8s=7--------------|
|------------------------------------|-6s=7s=6--------------|
|------------------------------------|-5s=6s=5--6--7--4--5--|
|---0--0-0---0-0-0---0-0-0---0-0-0---|----------5--6--3--4--|


  N.C.
  Gtrs I, II
  PM--|   PM--|   PM--|   PM--|     PM--|   PM--|   PM--|   PM--|
  S S S S S S S S S S S S S S S S   S S S S S S S S S S S S S S S S
|---------------------------------|---------------------------------|
|---------------------------------|---------------------------------|
|---------------------------------|---------------------------------|
|---------------------------------|---------------------------------|
|---------------------------------|---------------------------------|
|-0-0-0---0-0-0---0-0-0---0-0-0---|-0-0-0---0-0-0---0-0-0---0-0-0---|


                                    Db5EbbDb5Ab5BbbGb5Abb5
  PM--|   PM--|   PM--|   PM--|              PM-------|
  S S S S S S S S S S S S S S S S   E  E  Q  E  E  E  E
|---------------------------------|----------------------|
|---------------------------------|----------------------|
|---------------------------------|-7s=8s=7--------------|
|---------------------------------|-6s=7s=6--------------|
|---------------------------------|-5s=6s=5--6--7--4--5--|
|-0-0-0---0-0-0---0-0-0---0-0-0---|----------5--6--3--4--|


 Guitar Solo 2 (Heafy)
  B5/F#F5    N.F5N.C. F5    N.F5  N.C. F5N.C.  F5N.C.F5G5
  Gtr I
   \4____/        \1____/          \3______/           \1.5
   E    +Q.       E    +Q.         Q      +Q      Q    Q
|-------------------------------|----------------------------|
|----------------<7>--(<7>)-----|-<5>----(<5>)---------------|
|-<2>--(<2>)--------------------|----------------<3>---------|
|-------------------------------|----------------------------|
|-------------------------------|----------------------0-----|
|-------------------------------|----------------------------|
|
| Gtr II
|  PM------------------------------------------------|
|  E     E   E E  E     E   E E    E   E   E   E  E  E Q
|-------------------------------|----------------------------|
|-------------------------------|----------------------------|
|-------------------------------|----------------------------|
|-------------------------------|----------------------------|
|--------3-----3--------3-----3-|------3-------3-----3-5-----|
|--0-----1---0-1--0-----1---0-1-|--0---1---0---1--0--1-3-----|


  N.C.F5N.F5N.F5N.F5  N.CF5N.C.F5N.F5G5
  \6___________________/
                       ~~~~~~~~
  W                    Q   +H.
|-------------------|-------------------|
|-------------------|-------------------|
|-------------------|-------------------|
|-0-----------------|-h2---(2)----------|
|-------------------|-------------------|
|-------------------|-------------------|
|
| PM-------------------------------|
| E   E E E E E E E    E E  E  E E E Q
|-------------------|-------------------|
|-------------------|-------------------|
|-------------------|-------------------|
|-------------------|-------------------|
|-----3---3---3---3-|----3-----3---3-5--|
|-0---1-0-1-0-1-0-1-|--0-1--0--1-0-1-3--|


  N.C.     F5      N.C.    F5      N.C.     F5      N.C.    F5
   |-------------9:8-------------|  |-------------9:8-------------|
   S  S  S    S  S    S  S    S  S  S  S  S    S  S    S  S    S  S
|-------------------------------------------------------------------|
|-------------------------------------------------------------------|
|-------------------------------------------------------------------|
|-------------------------------------------------------------------|
|-----------------------12---15-18-12-15-18-------------------------|
|-12-15-18---12-15---18-----------------------12-15---18-12---15-18-|
|
|  PM----------------------------------------------------------------
|  E       E       E       E        E       E       E       E
|-------------------------------------------------------------------|
|-------------------------------------------------------------------|
|-------------------------------------------------------------------|
|-------------------------------------------------------------------|
|----------3---------------3----------------3---------------3-------|
|--0-------1-------0-------1--------0-------1-------0-------1-------|


  N.C.     F5      N.C.    F5      N.C.     F5      G5
   |-------------9:8-------------|  |------------9:8------------|
   S  S  S    S  S    S  S    S  S  S  S  S    S  S    S  S  S  S
|-------------------------------------------------------------------|
|-------------------------------------------------------------------|
|-------------------------------------------------------------------|
|-----------------------12---15-18-12-15-18-------------------------|
|-12-15-18---12-15---18-----------------------12-15---18-12-15-18---|
|-------------------------------------------------------------------|
|
|-------------------------------------------|
|  E       E       E       E        E       E       Q
|-------------------------------------------------------------------|
|-------------------------------------------------------------------|
|-------------------------------------------------------------------|
|-------------------------------------------------------------------|
|----------3---------------3----------------3-------5---------------|
|--0-------1-------0-------1--------0-------1-------3---------------|


  N.C.     F5      N.C.    F5      N.C.     F5      N.C.    F5
   |-------------9:8-------------|  |-------------9:8-------------|
   S  S  S    S  S    S  S    S  S  S  S  S    S  S    S  S    S  S
|-------------------------------------------------------------------|
|-------------------------------------------------------------------|
|-----------------------12---15-18-12-15-18--------------12---15----|
|-12-15-18---12-15---18-----------------------12-15---18---------18-|
|-------------------------------------------------------------------|
|-------------------------------------------------------------------|
|
|  PM----------------------------------------------------------------
|  E       E       E       E        E       E       E       E
|-------------------------------------------------------------------|
|-------------------------------------------------------------------|
|-------------------------------------------------------------------|
|-------------------------------------------------------------------|
|----------3---------------3----------------3---------------3-------|
|--0-------1-------0-------1--------0-------1-------0-------1-------|


  N.C.     F5      N.C.    F5      N.C.     F5      G5
   |-------------9:8-------------|  |------------9:8------------|
   S  S  S    S  S    S  S    S  S  S  S  S    S  S    S  S  S  S
|-------------------------------------------------------------------|
|---------------------------------------------12-15---18-12-15-18---|
|-----------------------12---15-18-12-15-18-------------------------|
|-12-15-18---12-15---18---------------------------------------------|
|-------------------------------------------------------------------|
|-------------------------------------------------------------------|
|
|-------------------------------------------|
|  E       E       E       E        E       E       Q
|-------------------------------------------------------------------|
|-------------------------------------------------------------------|
|-------------------------------------------------------------------|
|-------------------------------------------------------------------|
|----------3---------------3----------------3-------5---------------|
|--0-------1-------0-------1--------0-------1-------3---------------|


 Recapitulation
  F5                                                               G5
  Gtr I
    /6__________|
                ~~~~
    Q          +H.                         W
|----------------------------------------|-----------------------------|
|----------------------------------------|-----------------------------|
|-<14>--------(14)-----------------------|-----------------------------|
|----------------------------------------|-----------------------------|
|----------------------------------------|-----------------------------|
|----------------------------------------|-----------------------------|
|
|         PM-------|   PM--------------|
|   S   S S S   S  S S S S S S S S S S S   S S S S S S S S S S S S Q
|----------------------------------------|-----------------------------|
|----------------------------------------|-----------------------------|
|----------------------------------------|-----------------------------|
|--------------------3-------------------|-------------------------5---|
|---5p==2-2-2---2--2---2-2-2-2-2-2-2-2-2-|-5p2-2-2-2-2-3p2-2-2-2-2-3---|
|----------------------------------------|-----------------------------|


    B5A5B5C5/G  B5/F#       C5/G B5A5B5D5/A  B5/F#       Eb5/Bb
                       2/4      4/4                 2/4
    Gtrs I, II
      PM|         PM------|        PM|         PM------|
    E E E E +E  E E E   E E Q    E E E E +E  E E E   E E Q
||--------------------|--------|-------------------|-------|
||o-------------------|--------|-------------------|-------|
||--------------------|--------|-------------------|-------|
||--4---4-5-(5)-4-----|-----5--|-4---4-7-(7)-4-----|-----8-|
||o-2-0-2-3-(3)-2-2-2-|-2-2-3--|-2-0-2-5-(5)-2-2-2-|-2-2-6-|
||--2-0-2-3-(3)-2-2-2-|-2-2-3--|-2-0-2-5-(5)-2-2-2-|-2-2-6-|


  B5A5B5C5/G  B5/F#       C5/G B5A5B5D5/A  B5/F#       Eb5/Bb
 4/4                 2/4      4/4                 2/4
    PM|         PM------|        PM|         PM------|
  E E E E +E  E E E   E E Q    E E E E +E  E E E   E E Q
|-------------------|--------|-------------------|---------||
|-------------------|--------|-------------------|--------o||
|-------------------|--------|-------------------|---------||
|-4---4-5-(5)-4-----|-----5--|-4---4-7-(7)-4-----|-----8---||
|-2-0-2-3-(3)-2-2-2-|-2-2-3--|-2-0-2-5-(5)-2-2-2-|-2-2-6--o||
|-2-0-2-3-(3)-2-2-2-|-2-2-3--|-2-0-2-5-(5)-2-2-2-|-2-2-6---||


 Pre-Chorus 3
  Bb5
     PM      PM     PM------------|
  Q  E E +E  E Q    E E E E E E E E
|-----------------|-----------------|
|-----------------|-----------------|
|-----------------|-----------------|
|-3--3-2-(2)-2-3--|-3-3-3-3-3-3-3-3-|
|-1--1-1-(1)-1-1--|-1-1-1-1-1-1-1-1-|
|-----------------|-----------------|


   Chorus 3
    C5/G                                  A5
    Gtr I
       PM      PM      PM-|   PM    PM|      PM      PM      PM-|   PM      PM|
    Q  E E +E  E Q     E  E E E E E E E   Q  E E +E  E Q     E  E E E E  E  E E
||------------------|-------------------|-----------------|--------------------|
||o-----------------|-------------------|-----------------|--------------------|
||------------------|-------------------|-2----2-(2)------|--------------------|
||--5--5-3-(3)-3-5--|--5--5-5---3-5-5-5-|-3--3-2-(2)-2-3--|--3--3-3---3p=2--2-2|
||o-3--3-3-(3)-3-3--|--3--3-3-3-3-3-3-3-|-0--0-0-(0)-0-0--|--0--0-0-0-0-(0)-0-0|
||------------------|-------------------|-----------------|--------------------|
|
|   Gtr II
|   W                 +W                  W                 +W
||------------------|-------------------|-----------------|--------------------|
||o-----------------|-------------------|-----------------|--------------------|
||------------------|-------------------|-2---------------|-(2)----------------|
||--5---------------|-(5)---------------|-2---------------|-(2)----------------|
||o-3---------------|-(3)---------------|-0---------------|-(0)----------------|
||--3---------------|-(3)---------------|-----------------|--------------------|


                                  1.                                     2.
  Db5         C5                   Bb5
        PM|               PM|         PM      PM      PM--------------|
  Q  Q  E E E E   +Q   Q  E E Q    Q  E E +E  E Q     E  E E E E E E  E
|---------------|----------------|-----------------|--------------------|--||
|---------------|----------------|-----------------|--------------------|-o||
|---------------|----------------|-----------------|--------------------|--||
|-7--7--7-7-7s5-|-(5)--5--5-5-5--|-3--3-2-(2)-2-3--|--3--3-3-3-3-3-3--3-|--||
|-5--5--5-5-5s3-|-(3)--3--3-3-3--|-1--1-1-(1)-1-1--|--1--1-1-1-1-1-1--1-|-o||
|---------------|----------------|-----------------|--------------------|--||
|
|       PM|               PM|
| H     E E E E   +H      E E Q    W                 +W
|---------------|----------------|-----------------|--------------------|--||
|---------------|----------------|-----------------|--------------------|-o||
|-7---------7s5-|-(5)---------5--|-3---------------|-(3)----------------|--||
|-7-----7-7-7s5-|-(5)-----5-5-5--|-3---------------|-(3)----------------|--||
|-5-----5-5-5s3-|-(3)-----3-3-3--|-1---------------|-(1)----------------|-o||
|---------------|----------------|-----------------|--------------------|--||


 Outro
  Half-time Q=104
  Bb5/F       C5/G               A5                 D5/A        C5/G  Bb5/F
  Gtrs I, II
    PM----|            PM----|            PM----|           PM|
  Q E E E E E E   +Q   E E E E E E   +Q   E E E E E E   +Q. S S Q   E E
|---------------|------------------|------------------|------------------|
|---------------|------------------|------------------|------------------|
|---------------|----------------2-|-(2)----------2---|------------------|
|-3---------3-5-|-(5)----------5-2-|-(2)--2-2-2-2-2-7-|-(7)-----5---5-3--|
|-1-1-1-1-1-1-3-|-(3)--3-3-3-3-3-0-|-(0)--0-0-0-0-0-5-|-(5)-5-5-3---3-1--|
|-1-1-1-1-1-1-3-|-(3)--3-3-3-3-3---|----------------5-|-(5)-5-5-3---3-1--|


  Bb5/F        C5/G               A5               D5/A             Bb5/F
     PM----|            PM----|          PM----|           PM|
  Q  E E E E E E   +Q   E E E E E E   Q  E E E E E E   +Q. S S Q  E E   W
|----------------|------------------|----------------|----------------|------*|
|----------------|------------------|----------------|----------------|------*|
|----------------|----------------2-|-2----------2---|----------------|------*|
|-3----------3-5-|-(5)----------5-2-|-2--2-2-2-2-2-7-|-(7)-----5--5-3-|-3----*|
|-1--1-1-1-1-1-3-|-(3)--3-3-3-3-3-0-|-0--0-0-0-0-0-5-|-(5)-5-5-3--3-1-|-1----*|
|-1--1-1-1-1-1-3-|-(3)--3-3-3-3-3---|--------------5-|-(5)-5-5-3--3-1-|-1----*|




--------------------------------------------------------------------------------


Duration Legend
---------------
W - whole; H - half; Q - quarter; E - 8th; S - 16th; T - 32nd; X - 64th; a - acciaccatura
+ - note tied to previous; . - note dotted; .. - note double dotted
Uncapitalized letters represent notes that are staccato (1/2 duration)
Irregular groupings are notated above the duration line
Duration letters will always appear directly above the note/fret number it represents the
duration for.  Duration letters with no fret number below them represent rests.  Multi-
bar rests are notated in the form Wxn, where n is the number of bars to rest for.  Low
melody durations appear below the staff

Tablature Legend
----------------
 h   - hammer-on
 p   - pull-off
 b   - bend
 pb  - pre-bend
 r   - bend release (if no number after the r, then release immediately)
 /\  - slide into or out of (from/to "nowhere")
 s   - legato slide
 S   - shift slide
 - natural harmonic
[n]  - artificial harmonic
n(n) - tapped harmonic
 ~   - vibrato
 tr  - trill
 T   - tap
 TP  - trem. picking
 PM  - palm muting
\n/  - tremolo bar dip; n = amount to dip
 \n  - tremolo bar down
 n/  - tremolo bar up
/n\  - tremolo bar inverted dip
 =   - hold bend; also acts as connecting device for hammers/pulls
 <> - volume swell (louder/softer)
 x   - on rhythm slash represents muted slash
 o   - on rhythm slash represents single note slash

Misc Legend
-----------
 |  - bar
||  - double bar
||o - repeat start
o|| - repeat end
*|  - double bar (ending)
 :  - bar (freetime)
 $  - Segno
 &  - Coda
Tempo markers -  = BPM(8/16=s8/s16), where s8 = swing 8ths, s16 = swing 16ths

Tap to rate this tab
 
# A B C D E F G H I J K L M N O P Q R S T U V W X Y Z