Guitaretab - guitar tabs
Song name
# A B C D E F G H I J K L M N O P Q R S T U V W X Y Z

Trivium - This World Cant Tear Us Apart tab

Artist:   Trivim
Song:     This World Can't Tear Us Apart
Album:    The Crusade
Year:     2006

Guitar 1 Corey - 7 string (B E A D G B E) 
Guitar 2 Matt - 7 string (B E A D G B E)

Intro:

  Guitar 1
|-----------------------------------------------------------------------------------------------------|
|-----------------------------------------------------------------------------------------------------|
|-----------------------------------------------------------------------------------------------------|
|------------9--9--9--9--9-----------------------------------9--9--9--9--9--------------6--6--4--4----|
|---7--7--6-----------------7--7--6-----------------7--7--6-----------------7--7--6--6----------------|
|------------------------------------7--7--7--7--7----------------------------------------------------|
|-----------------------------------------------------------------------------------------------------|
|
| Guitar 2
|-----------------------------------------------------------------------------------------------------|
|-----------------------------------------------------------------------------------------------------|
|-----------------------------------------------------------------------------------------------------|
|---------------------------------------------------7--7--7--7--7--7--7--7----------------------------|
|---4--4--4--4--4--4--4--4--2--2--2--2--2--2--2--2--7--7--7--7--7--7--7--7--2--2--2--2----------------|
|---4--4--4--4--4--4--4--4--2--2--2--2--2--2--2--2--5--5--5--5--5--5--5--5--2--2--2--2-----4----------|
|---2--2--2--2--2--2--2--2--0--0--0--0--0--0--0--0--------------------------0--0--0--0--5-----5--7----|


Verse:

  Both Guitars
|---------------------------------------------------------------------------------------------------------|
|---------------------------------------------------------------------------------------------------------|
|---------------------------------------------------------------------------------------------------------|
|---------------------------------------------------------------------------------------------------------|
|----------------------------------------------------7-----7----------7--7--7-----------------------------|
|---4--4----------4--4--4--2-----2----------2--2--2--5-----5----------5--5--5--2----2----------------4--2-|
|---2--2----------2--2--2--0-----0----------0--0--0--5-----5----------5--5--5--0----0---0--0--0--0---5--4-|


|----------------------------------------------------------------------------------------------|
|----------------------------------------------------------------------------------------------|
|----------------------------------------------------------------------------------------------|
|----------------------------------------------------------------------------------------------|
|---------4--4--4--4--4--4--4--4-------------------------4--4--4--4--4--4--4--4----------------|
|---4--4--------------------------4--4--4--4-------4--4--------------------------4--4--4--4----|
|---2--2--------------------------2--2--2--4-------4--4--------------------------4--4--4--4----|


|-------------------------------------------------------------------------------|
|-------------------------------------------------------------------------------|
|-------------------------------------------------------------------------------|
|-------------------------------------------------------------------------------|
|---7--7--------------------------7--7--7---------------------------------------|
|---5--5--5--5--5--5--5--5--5--5--5--5--5--4-------4-----------------4--2-------|
|------------------------------------------4-------4----0--0--0--0---5--4-------|


Pre Chorus: (twice)

  Guitar 1
|------------------------------------------------------------------------|
|------------------------------------------------------------------------|
|---------6--6--------------8--9---------------6--6--------------8--9----|
|---------x--x--------------x--x---------------x--x--------------x--x----|
|---------4--4--4--4--4--4--6--7---------------4--4--6--6--6--6--6--7----|
|------------------------------------------------------------------------|
|------------------------------------------------------------------------|
|
| Guitar 2
|------------------------------------------------------------------------|
|------------------------------------------------------------------------|
|------------------------------------------------------------------------|
|------------------------------------------------------------------------|
|---------4--4--4--4--4--4--4--4--------------6--6--6--6--6--6--6--6-----|
|---4--4--------------------------4--4--4--6-----------------------------|
|---2--2--------------------------2--2--2--4-----------------------------|


  Guitar 1
|-----------------------------------------------------------------|
|-----------------------------------------------------------------|
|-----6--6--------------8--9-----------------11--11--13--13-------|
|-----x--x--------------x--x------------------x---x---x---x-------|
|-----4--4--7--7--7--7--6--7------------------9---9--11--11-------|
|-----------------------------------------------------------------|
|-----------------------------------------------------------------|
|
| Guitar 2
|-----------------------------------------------------------------|
|-----------------------------------------------------------------|
|--------------------------------------------11--11--13--13-------|
|---------------------------------------------x---x---x---x-------|
|------7--7--7--7--7--7--7--7-----------------9---9--11--11-------|
|---7--------------------------7--7--7--4-------------------------|
|---5--------------------------5--5--5--4-------------------------|



Chorus: (twice)

  Guitar 1
|-----------------------------------------------------------------------------------------------------|
|-----------------------------------------------------------------------------------------------------|
|-----------------------------------------------------------------------------------------------------|
|------------9--9--9--9--9-----------------------------------9--9--9--9--9--------------6--6--4--4----|
|---7--7--6-----------------7--7--6-----------------7--7--6-----------------7--7--6--6----------------|
|------------------------------------7--7--7--7--7----------------------------------------------------|
|-----------------------------------------------------------------------------------------------------|
|
| Guitar 2
|-----------------------------------------------------------------------------------------------------|
|-----------------------------------------------------------------------------------------------------|
|-----------------------------------------------------------------------------------------------------|
|---------------------------------------------------7--7--7--7--7--7--7--7----------------------------|
|---4--4--4--4--4--4--4--4--2--2--2--2--2--2--2--2--7--7--7--7--7--7--7--7--2--2--2--2----------------|
|---4--4--4--4--4--4--4--4--2--2--2--2--2--2--2--2--5--5--5--5--5--5--5--5--2--2--2--2-----4----------|
|---2--2--2--2--2--2--2--2--0--0--0--0--0--0--0--0--------------------------0--0--0--0--5-----5--7----|


Verse:

  Both Guitars
|---------------------------------------------------------------------------------------------------------|
|---------------------------------------------------------------------------------------------------------|
|---------------------------------------------------------------------------------------------------------|
|---------------------------------------------------------------------------------------------------------|
|----------------------------------------------------7-----7----------7--7--7-----------------------------|
|---4--4----------4--4--4--2-----2----------2--2--2--5-----5----------5--5--5--2----2----------------4--2-|
|---2--2----------2--2--2--0-----0----------0--0--0--5-----5----------5--5--5--0----0---0--0--0--0---5--4-|


|----------------------------------------------------------------------------------------------|
|----------------------------------------------------------------------------------------------|
|----------------------------------------------------------------------------------------------|
|----------------------------------------------------------------------------------------------|
|---------4--4--4--4--4--4--4--4-------------------------4--4--4--4--4--4--4--4----------------|
|---4--4--------------------------4--4--4--4-------4--4--------------------------4--4--4--4----|
|---2--2--------------------------2--2--2--4-------4--4--------------------------4--4--4--4----|


|-------------------------------------------------------------------------------|
|-------------------------------------------------------------------------------|
|-------------------------------------------------------------------------------|
|-------------------------------------------------------------------------------|
|---7--7--------------------------7--7--7---------------------------------------|
|---5--5--5--5--5--5--5--5--5--5--5--5--5--4-------4-----------------4--2-------|
|------------------------------------------4-------4----0--0--0--0---5--4-------|


Pre Chorus: (twice)

  Guitar 1
|------------------------------------------------------------------------|
|------------------------------------------------------------------------|
|---------6--6--------------8--9---------------6--6--------------8--9----|
|---------x--x--------------x--x---------------x--x--------------x--x----|
|---------4--4--4--4--4--4--6--7---------------4--4--6--6--6--6--6--7----|
|------------------------------------------------------------------------|
|------------------------------------------------------------------------|
|
| Guitar 2
|------------------------------------------------------------------------|
|------------------------------------------------------------------------|
|------------------------------------------------------------------------|
|------------------------------------------------------------------------|
|---------4--4--4--4--4--4--4--4--------------6--6--6--6--6--6--6--6-----|
|---4--4--------------------------4--4--4--6-----------------------------|
|---2--2--------------------------2--2--2--4-----------------------------|


  Guitar 1
|-----------------------------------------------------------------|
|-----------------------------------------------------------------|
|-----6--6--------------8--9-----------------11--11--13--13-------|
|-----x--x--------------x--x------------------x---x---x---x-------|
|-----4--4--7--7--7--7--6--7------------------9---9--11--11-------|
|-----------------------------------------------------------------|
|-----------------------------------------------------------------|
|
| Guitar 2
|-----------------------------------------------------------------|
|-----------------------------------------------------------------|
|--------------------------------------------11--11--13--13-------|
|---------------------------------------------x---x---x---x-------|
|------7--7--7--7--7--7--7--7-----------------9---9--11--11-------|
|---7--------------------------7--7--7--4-------------------------|
|---5--------------------------5--5--5--4-------------------------|


Chorus: (twice)

  Guitar 1
|-----------------------------------------------------------------------------------------------------|
|-----------------------------------------------------------------------------------------------------|
|-----------------------------------------------------------------------------------------------------|
|------------9--9--9--9--9-----------------------------------9--9--9--9--9--------------6--6--4--4----|
|---7--7--6-----------------7--7--6-----------------7--7--6-----------------7--7--6--6----------------|
|------------------------------------7--7--7--7--7----------------------------------------------------|
|-----------------------------------------------------------------------------------------------------|
|
| Guitar 2
|-----------------------------------------------------------------------------------------------------|
|-----------------------------------------------------------------------------------------------------|
|-----------------------------------------------------------------------------------------------------|
|---------------------------------------------------7--7--7--7--7--7--7--7----------------------------|
|---4--4--4--4--4--4--4--4--2--2--2--2--2--2--2--2--7--7--7--7--7--7--7--7--2--2--2--2----------------|
|---4--4--4--4--4--4--4--4--2--2--2--2--2--2--2--2--5--5--5--5--5--5--5--5--2--2--2--2-----4----------|
|---2--2--2--2--2--2--2--2--0--0--0--0--0--0--0--0--------------------------0--0--0--0--5-----5--7----|



Bridge: (Twice)

  Both Guitars
|----------------------------------------------------------------------------------------------------|
|----------------------------------------------------------------------------------------------------|
|----------------------------------------------------------------------------------------------------|
|----------------------------------------------------------------------------------------------------|
|----------------------------------------------------------------------------------------------------|
|---------------------------------------------------------------------------------------4--4--4--4---|
|---2--2--2--2--2--2--0--2--4--4--4--4--4--4--2--4--5--5--5--5--5--5--4--5--7--7--7--7---------------|

|----------------------------------------------------------------------------------------------------|
|----------------------------------------------------------------------------------------------------|
|----------------------------------------------------------------------------------------------------|
|---------------------------------------------------------------------------6--6--6--6--4--4--4--4---|
|---------------------------------------------------4--4--4--4--4--4--7--7---------------------------|
|---5--5--5--5--5--5--4--5--7--7--7--7--7--7--5--7---------------------------------------------------|
|----------------------------------------------------------------------------------------------------|


Solo Guitar 1: (Guitar 2 plays Bridge riff under neath)

|---------------------------------------------------------------------------------------------------|
|---------------------------------------------------------------------------------------------------|
|---------------------------------------------------------------------------11--13--14--11--13--14--|
|---------------------------------------------------11--13--14--11--13--14--------------------------|
|---------------------------11--13--14--11--13--14--------------------------------------------------|
|----9--11--12---9--11--12--------------------------------------------------------------------------|
|---------------------------------------------------------------------------------------------------|

|---------------------------------------------------------------------------12--14--16--14--16--17--|
|---------------------------------------------------12--14--16--12--14--16--------------------------|
|---------------------------11--13--14--11--13--14--------------------------------------------------|
|---11--13--14--11--13--14--------------------------------------------------------------------------|
|---------------------------------------------------------------------------------------------------|
|---------------------------------------------------------------------------------------------------|
|---------------------------------------------------------------------------------------------------|

[ Tab from: http://www.guitaretab.com/t/trivium/78792.html ]
|---17--16--14--17--16--14--------------------------------------------------------------------------|
|---------------------------17--16--14--17--16--14--------------------------------------------------|
|---------------------------------------------------16--14--13--16--14--13--------------------------|
|---------------------------------------------------------------------------16--14--13--16--14--13--|
|---------------------------------------------------------------------------------------------------|
|---------------------------------------------------------------------------------------------------|
|---------------------------------------------------------------------------------------------------|


|---------------------------------------------------------------------------------------------------|
|---------------------------------------------------------------------------------------------------|
|---16--14--13--16--14--13--------------------------------------------------------------------------|
|---------------------------16--14--13--16--14--13--------------------------------------------------|
|---------------------------------------------------14--12--11--14--12--11--------------------------|
|---------------------------------------------------------------------------14--12--11--14--12--11--|
|---------------------------------------------------------------------------------------------------|


Solo Guitar 2: (Guitar 1 plays Bridge riff under neath)

|-------------------------------------------------------------------------|
|------------------14---------------------------------17------------------|
|-------------------x-----------------------------16------16--------------|
|---------------11-----11---------------------14---------------14---------|
|-----------11-------------11------------------x----------------x---------|
|-------12---------------------12--12-----16-----------------------16-----|
|---14--------------------------------------------------------------------|



|-----------------------16------------------------------12--19--14-------------|
|-------------------16------16----------------------12--------------16---------|
|---------------13--------------13--------------13----------------------16-----|
|-----------13----------------------13------13---------------------------------|
|-------14------------------------------14-------------------------------------|
|---16-------------------------------------------------------------------------|
|------------------------------------------------------------------------------|



|--------------------16--21--16---------------------------16--21--16--14---------|
|--------------------------------17---------------------------------------14-----|
|---------------18-------------------18---------------18-------------------------|
|-----------18------------------------------------18-----------------------------|
|-------19------------------------------------19---------------------------------|
|---21------------------------------------21-------------------------------------|
|--------------------------------------------------------------------------------|


|---14fb----------16--19--19fb----------19fb-----|
|------------------------------------------------|
|------------------------------------------------|
|------------------------------------------------|
|------------------------------------------------|
|------------------------------------------------|
|------------------------------------------------|


Post Solo:

  Guitar 1
|-------------------------------------------------------|-------------------------------------------------------|
|-------------------------------------------------------|-------------------------------------------------------|
|-------------------------------------------------------|-------------------------------------------------------|
|------------6-----4-----------------4-----4/6\4--------|---7--------7-----7-----7--9---------------------------|
|------------4-----2-----0-----------2-----2/4\2--------|---5--5--5--5--5--5--5--5--7------------0--4--2--------|
|---2--2--2-----2-----2-----0--0--0-----0---------0-----|---------------------------0---0--0--0-----------0-----|
|-------------------------------------------------------|-------------------------------------------------------|


Both Guitars
|-------------------------------------------------------|
|-------------------------------------------------------|
|-------------------------------------------------------|
|---4--4--4--4--4--4--4--4---2--2--2--2--2--2--2--2-----|
|---4--4--4--4--4--4--4--4---2--2--2--2--2--2--2--2-----|
|---2--2--2--2--2--2--2--2---0--0--0--0--0--0--0--0-----|
|-------------------------------------------------------|

Guitar 1:
|-------------------------------------------------------|
|-------------------------------------------------------|
|-------------------------------------------------------|
|---7--7--7--7--6--6--6--6---4--4--4--4--4--4--4--4-----|
|---x--x--x--x--x--x--x--x---x--x--x--x--x--x--x--x-----|
|---5--5--5--5--4--4--4--4---2--2--2--2--2--2--2--2-----|
|-------------------------------------------------------|
|
|
|-------------------------------------------------------|
|-------------------------------------------------------|
|-------------------------------------------------------|
|----------------------------2--2--2--2-----------------|
|---5--5--5--5--5--5--5--5---2--2--2--2--0--4--2--------|
|---5--5--5--5--5--5--5--5---0--0--0--0-----------4-----|
|---3--3--3--3--3--3--3--3------------------------------|


Both Guitars
|-------------------------------------------------------|
|-------------------------------------------------------|
|-------------------------------------------------------|
|---4--4--4--4--4--4--4--4---2--2--2--2--2--2--2--2-----|
|---4--4--4--4--4--4--4--4---2--2--2--2--2--2--2--2-----|
|---2--2--2--2--2--2--2--2---0--0--0--0--0--0--0--0-----|
|-------------------------------------------------------|

Guitar 1:
|-------------------------------------------------------|
|-------------------------------------------------------|
|-------------------------------------------------------|
|---7--7--7--7--7--7--7--7---9--9--9--9--9--9--9--9-----|
|---x--x--x--x--x--x--x--x---x--x--x--x--x--x--x--x-----|
|---5--5--5--5--5--5--5--5---7--7--7--7--7--7--7--7-----|
|-------------------------------------------------------|
|
|
|-------------------------------------------------------|
|-------------------------------------------------------|
|-------------------------------------------------------|
|----------------------------2--2--2--2-----------------|
|---5--5--5--5--5--5--5--5---2--2--2--2--0--4--2--------|
|---5--5--5--5--5--5--5--5---0--0--0--0-----------4-----|
|---3--3--3--3--3--3--3--3------------------------------|



Chorus: (twice)

  Guitar 1
|-----------------------------------------------------------------------------------------------------|
|-----------------------------------------------------------------------------------------------------|
|-----------------------------------------------------------------------------------------------------|
|------------9--9--9--9--9-----------------------------------9--9--9--9--9--------------6--6--4--4----|
|---7--7--6-----------------7--7--6-----------------7--7--6-----------------7--7--6--6----------------|
|------------------------------------7--7--7--7--7----------------------------------------------------|
|-----------------------------------------------------------------------------------------------------|
|
| Guitar 2
|-----------------------------------------------------------------------------------------------------|
|-----------------------------------------------------------------------------------------------------|
|-----------------------------------------------------------------------------------------------------|
|---------------------------------------------------7--7--7--7--7--7--7--7----------------------------|
|---4--4--4--4--4--4--4--4--2--2--2--2--2--2--2--2--7--7--7--7--7--7--7--7--2--2--2--2----------------|
|---4--4--4--4--4--4--4--4--2--2--2--2--2--2--2--2--5--5--5--5--5--5--5--5--2--2--2--2-----4----------|
|---2--2--2--2--2--2--2--2--0--0--0--0--0--0--0--0--------------------------0--0--0--0--5-----5--7----|


Interlude: (Twice)
  Guitar 1
|-----------------------------------------------------------------------------------------------------|
|-----------------------------------------------------------------------------------------------------|
|------------9--9--9--9--9-----------------------------------9--9--9--9--9--------------6--6--4--4----|
|---7--7--6-----------------7--7--6-----------------7--7--6-----------------7--7--6--6----------------|
|------------------------------------7--7--7--7--7----------------------------------------------------|
|-----------------------------------------------------------------------------------------------------|
|-----------------------------------------------------------------------------------------------------|
|
|Guitar 2
|-------------------------------------------------------|-------------------------------------------------------|
|-------------------------------------------------------|-------------------------------------------------------|
|-------------------------------------------------------|-------------------------------------------------------|
|------------6-----4-----------------4-----4/6\4--------|---7--------7-----7-----7--9---------------------------|
|------------4-----2-----0-----------2-----2/4\2--------|---5--5--5--5--5--5--5--5--7------------0--4--2--------|
|---2--2--2-----2-----2-----0--0--0-----0---------0-----|---------------------------0---0--0--0-----------0-----|
|-------------------------------------------------------|-------------------------------------------------------|



Bridge: (Twice)

  Both Guitars
|----------------------------------------------------------------------------------------------------|
|----------------------------------------------------------------------------------------------------|
|----------------------------------------------------------------------------------------------------|
|----------------------------------------------------------------------------------------------------|
|----------------------------------------------------------------------------------------------------|
|---------------------------------------------------------------------------------------4--4--4--4---|
|---2--2--2--2--2--2--0--2--4--4--4--4--4--4--2--4--5--5--5--5--5--5--4--5--7--7--7--7---------------|

|----------------------------------------------------------------------------------------------------|
|----------------------------------------------------------------------------------------------------|
|----------------------------------------------------------------------------------------------------|
|---------------------------------------------------------------------------6--6--6--6--4--4--4--4---|
|---------------------------------------------------4--4--4--4--4--4--7--7---------------------------|
|---5--5--5--5--5--5--4--5--7--7--7--7--7--7--5--7---------------------------------------------------|
|----------------------------------------------------------------------------------------------------|


Outro Solo Guitar 1: (Guitar 2 plays Bridge riff under neath)

|-----------------------------------------------------------------------------------|
|---9--12--9-----------9--12--9--------9--12--9--------9--12--9--------9--12--9-----|
|----------------11fb------------11fb------------11fb------------11fb---------------|
|-----------------------------------------------------------------------------------|
|-----------------------------------------------------------------------------------|
|-----------------------------------------------------------------------------------|
|-----------------------------------------------------------------------------------|


|-----------------------------9--11--11b-----11--9--11--9-----------------------------|
|---x-------------10--12--14-------------------------------12--14--12-----------------|
|------9--11--13-------------------------------------------------------13--14--13-----|
|-------------------------------------------------------------------------------------|
|-------------------------------------------------------------------------------------|
|-------------------------------------------------------------------------------------|
|-------------------------------------------------------------------------------------|


|------------12----------------------------12--9--------------12------14------12---------|
|---12fb---------12fb-----12--10--9~~~----------------10--14------14------14------14-----|
|-------------------------------------------------13-------------------------------------|
|----------------------------------------------------------------------------------------|
|----------------------------------------------------------------------------------------|
|----------------------------------------------------------------------------------------|
|----------------------------------------------------------------------------------------|


|---14----------14----------14--------16----------16----------16---------|
|-------16----------16----------16--------17----------17----------17-----|
|-----------16----------16--------------------18----------18-------------|
|------------------------------------------------------------------------|
|------------------------------------------------------------------------|
|------------------------------------------------------------------------|
|------------------------------------------------------------------------|


|---16----------------------------------------16-----21-------------21-------------21---------|
|-------17--------------------------------17-------------21p19--19------21p19--19------22-----|
|-----------18------------------------18------------------------------------------------------|
|---------------18----------------18----------------------------------------------------------|
|-------------------16--x--x--16--------------------------------------------------------------|
|---------------------------------------------------------------------------------------------|
|---------------------------------------------------------------------------------------------|


|---19----------19----------19--------21--------------21----------21------21-----|
|-------21----------21----------21--------22--19--22------22--19------22---------|
|-----------21----------21-------------------------------------------------------|
|--------------------------------------------------------------------------------|
|--------------------------------------------------------------------------------|
|--------------------------------------------------------------------------------|
|--------------------------------------------------------------------------------|


|--------------------------------------------------------|
|---22--19--------------19-------------------19--22------|
|-----------18------18------------18---------------------|
|---------------19------------19------19-----------------|
|--------------------------------------------------------|
|--------------------------------------------------------|
|--------------------------------------------------------|


Ending:

|--19fb-------------------------------------------|
|-------------------------------------------------|
|-------------------------------------------------|
|-------------------------------------------------|
|-------------------------------------------------|
|-----------9-----7--9--9--9--9--9--9--9----------|
|------------------------------------------2\-----|
|
|
|-------------------------------------------------|
|-------------------------------------------------|
|-------------------------------------------------|
|-------------------------------------------------|
|---4---------------------------------------------|
|---4--------------------------------------9\-----|
|---2-------2-----0--2--2--2--2--2--2--2----------|
Related for This World Cant Tear Us Apart tab
Advertisement will be closed in 10 seconds