Song name
# A B C D E F G H I J K L M N O P Q R S T U V W X Y Z

Trivium - Unrepentant tab

Unrepentant solo


May not be totally right, I put my corrections to the only version that's in the whole 
tabs.


                     PM PM PM PM PM PM
E||---------------------------------------|
B||---------------------------------------|
G||--------------------------11-13-13S-14-|
D||-----------------11-12-14--------------|
A||---------------------------------------|
E||---------------------------------------|


                                                      PM
--------------------------------------------------------|
--------------------------------------------------------|
--16b--16b--16pbr-14-14-16-14-13-14-13h-14p-13-11-13-11-|
--------------------------------------------------------|
--------------------------------------------------------|
--------------------------------------------------------|


   PM PM                                          PH
-----------------------------------------------------------------|
-----------------------------------------------------------------|
-----11----------------------------------------------------------|
--14----14-14h-16p-14-12-14-12-11-11h-12p-11---<>12~-L-----------|
--------------------------------------------------------11-12-14-|
---------------------------------------------9-------------------|


-----------------------------------------------------------------------12-14-12-|
--------------------------------------------------12-14-12-14-15-14-15----------|
-----------------------------11-13-11-13-14-13-14-------------------------------|
--------11-12-11-12-14-12-14----------------------------------------------------|
--12-14-------------------------------------------------------------------------|
--------------------------------------------------------------------------------|


--19b----19br--17-19--------L-|
------------------------------|
------------------------------|
------------------------------|
------------------------------|
------------------------------|


--21--21--21-19-17-19--L-17-16-17--L-14-16-14-16-|
-------------------------------------------------|
-------------------------------------------------|
-------------------------------------------------|
-------------------------------------------------|
-------------------------------------------------|


                                       W       TP TP TP    TPTP   TP  TP  TP
--14----------------------------------------|----------------7--L-9--10--12--|
-----17-15-17-15-14-15-14----14-------------|-----7--9--L-10-----------------|
--------------------------16----16-14-13----|--9-----------------------------|
--------------------------------------------|--------------------------------|
--------------------------------------------|--------------------------------|
--------------------------------------------|--------------------------------|


--17-21-17----------------17----------------17-21-17----------------17-19b-19b--|
-----------19----------19----19----------19----------19----------19-------------|
--------------18----18----------18----18----------------18----18----------------|
-----------------19----------------19----------------------19-------------------|
--------------------------------------------------------------------------------|
--------------------------------------------------------------------------------|


Tablature Legend
----------------
L - tied note
> - accentuded note
PH - pitch harmonic
h - hammer on
p - pull off
b - bend
br - bendRelease
~ - vibrato
W - wide vibrato
TP - tremolo picking
< - fade in
Tap to rate this tab
# A B C D E F G H I J K L M N O P Q R S T U V W X Y Z