Guitaretab - guitar tabs
Song name
# A B C D E F G H I J K L M N O P Q R S T U V W X Y Z

Trivium - Ignition tab

Artist:     Tobymac
Song:       Ignition (Live in Dallas)
Tabbed by:  R. P. Benik III
Tuning:     Drop D

I tabbed this from the Alive and Transported Album which was done live at Dallas.  It is 
the same key as the original album but with a lot of added guitar parts that I think 
the song a lot more enjoyable to play.

If you have any questions just leave a message on my profile here on Ultimate-Guitar.  I 
expect any correction suggestions because this tab is about 99.9% accurate minus the 
patterns.

Legend:

h  hit on
p  pull off
^  bend
/  slide to higher note
\  slide to lower note
~  tremelo


Intro/Chorus:


|-------------------------------------------------------------|
|-------------------------------------------------------------|
|------------3-3-3-3-3----------------------------------------|
|--0-0--0-0--3-3-3-3-3-----------3-3--3-3--7-7-7-7-7----------|
|--0-0--0-0--1-1-1-1-1------3h5--3-3--3-3--5-5-5-5-5------3~--|
|--0-0--0-0-------------3h5------3-3--3-3--5-5-5-5-5--3h5-----|


|------------------------------------------------------------|
|------------------------------------------------------------|
|------------3-3-3-3-3---------------------------------------|
|--0-0--0-0--3-3-3-3-3-----------3-3--3-3--7-7-7-7-7--0h1-1--|
|--0-0--0-0--1-1-1-1-1------3h5--3-3--3-3--5-5-5-5-5--0h1-1--|
|--0-0--0-0-------------3h5------3-3--3-3--5-5-5-5-5--0h1-1--|


Verse 1:

PM      ....        ....
|-------------------------|
|-------------------------|
|-------------------------|
|-------------------------|
|--0----0--0---0----0--0--|
|--0----0--0---0----0--0--|

PM..................................
|----------------------------------------------|
|----------------------------------------------|
|----------------------------------------------|
|----------------------------------------------|
|--5--5---3--5--5-----5--5---3--5--5--6-6-6-5--|
|----------------------------------------------|  x2
[ Tab from: http://www.guitaretab.com/t/trivium/79602.html ]
PM..................................................   .......    .    .
|------------------------------------------------------------------------------|
|------------------------------------------------------------------------------|
|------------------------------------------------------------------------------|
|------------------------------------------------------------------------------|
|--0--0----0---X-X-X-X-0--0----0---X-X-X-X-0--0----0---5-8-8-5-8--5-8--5-8--5--|
|--0--0----0---X-X-X-X-0--0----0---X-X-X-X-0--0----0---------------------------|


Verse 2:


|--10-10-10-11-10----10-10-10-11-10--|
|--10-10-10-10-10----10-10-10-10-10--|
|------------------------------------|
|------------------------------------|
|------------------------------------|
|------------------------------------|  x4

PM..................................................   .......    .    .
|------------------------------------------------------------------------------|
|------------------------------------------------------------------------------|
|------------------------------------------------------------------------------|
|------------------------------------------------------------------------------|
|--0--0----0---X-X-X-X-0--0----0---X-X-X-X-0--0----0---5-8-8-5-8--5-8--5-8--5--|
|--0--0----0---X-X-X-X-0--0----0---X-X-X-X-0--0----0---------------------------|


|--------------------------|
|--------------------------|
|--------------------------|
|--------------------------|
|--5-5-5-6-5----5-5-5-6-5--|
|--------------------------|  x2


Bridge:

Let
Ring......                                 ................................
|---------------------------------------------------------------------------------|
|---------------------------------------------------------------------------------|
|--------5------5\-2-^(2)---------------------------------------------------------|
|------3------------------5-~-3-5-3-2~--0--0--------------------------------0--0--|
|----3-------------------------------------0--------------------------------0--0--|
|--3---------------------------------------0--------------------------------0--0--|


|-------------------|
|-------------------|
|------3------------|
|--0---3-----3---7--|
|--0---1-----3---5--|
|--0---------3---5--| x2

Hold Bend
|------------------------------------------------------------|
|--10--10--10--10--10---15--15--15--15--15--15--15--15--15---|
|--12^(14)(14)(14)(14)--17^(19)(19)(19)(19)(19)(19)(19)(19)--|
|------------------------------------------------------------|
|------------------------------------------------------------|
|------------------------------------------------------------|  x3

Hold Bend
|-----------------------------------------------------|
|--10--10--10--10--10---17--17--17--17--17------------|
|--12^(14)(14)(14)(14)--19^(21)(21)(21)(21)-----------|
|--------------------------------------------0--0--0--|
|--------------------------------------------0--0--0--|
|--------------------------------------------0--0--0--|
Related for Ignition tab
Ignition chords by Trivium