Song name
# A B C D E F G H I J K L M N O P Q R S T U V W X Y Z

Trivium - Contempt Breeds Contamination tab

Contempt breeds contamination 
note: is played on a seven string 

intro
|--------------------------------------------------------------------------------------------------------------------|
|--------------------------------------------------------------------------------------------------------------------|
|--------------------------------------------------------------------------------------------------------------------|
|------------------------------------4-----------3------------------------------------------------9-----------8------|
|---------------------------------2-5--5-2---1-4---4-1-----2-3-2-------2-3-2-------1-2-1-----7-10--10-7---6-9---9-6--|
|----2-3-2-----2-3-2-----1-2-1---------------------------3-------3---3-------3---2-------2---------------------------|
|-0-3-----3-0-3-----3-0-2-----2-5----------5-----------0-----------0-----------0-----------5------------5------------|

|------------------------------------------------------------------------------------------------------|
|------------------------------------------------------------------------------------------------------|
|----------------------------------------------------------------------1-4-1---------------------------|
|-------------------------------------------0-3-0------------------0-3-------3-0-----------------------|
|---------2-5-2---------------------------2-------2--------------2---------------2---------------0-2-0-|
|-----1-4-------4-1-------------------1-4----------4-1-------1-4-------------------4-1---------1-------|
|-0-3---------------3-0-3-3-1-0-1-0-3------------------3-0-3---------------------------3-0-3-0---------|

pre verse
|-----------------------------------|
|-----------------------------------|
|-----------------------------------|
|-----------------------------------|
|-----------------------------------|
|-3-3-3-3-3-0-0-0-0-0--0--3-3-3-3-3-|
|-1-1-1-1-1-2-2-2-2-2--2--1-1-1-1-1-|

verse
|----------------------------------------------------------------------------------------------------------|
|----------------------------------------------------------------------------------------------------------|
|----------------------------------------------------------------------------------------------------------|
|----------------------------------------------------------------------------------------------------------|
|----------------------------------------------------------------------------------------------------------|
|---------5-----5-4-------5------------------------------------4-----4-3-------4---------------------------|
|-3-3-3-3---3-3-----3-3-3---3-3-3-3--2222-0-2-3-2-0-2--2-2-2-2---2-2-----2-2-2---2-2-2-2--1111-0-1-2-1-0-1-|

Tap to rate this tab
# A B C D E F G H I J K L M N O P Q R S T U V W X Y Z