Guitaretab - guitar tabs
Song name
# A B C D E F G H I J K L M N O P Q R S T U V W X Y Z

Trivium - Pillars Of Serpents tab

-------------------------------------------------------------------------------
			     PILLARS OF SERPENTS - Trivium
-------------------------------------------------------------------------------
Tabbed by:Eoghan Magliocco
Email:ascendancy-@hotmail.com

Tuning:DADGBe

Okay for this tab there is probably lots of extra P.Ms and Pull-offs, Hammers etc that 
be there. I just heard this song and decided to tab it out the way i play it. so here we 
:]

Intro [ This bit is just continuous P.Ms
e|---------------------------------------------------------------------------|
B|---------------------------------------------------------------------------|
G|---------------------------------------------------------------------------|
D|--000-000-000-000-000------------------------------------------------------|
A|--000-000-000-000-000------------------------------------------------------|
D|--000-000-000-000-000------------------------------------------------------|
P.M ... ... ... ... ...

Intro pt2
e|----------------------------------------------------|----------|
B|----------------------------------------------------|----------|
G|----------------------------------------------------|----------|
D|-0~-------------------------------------------------|-3-6--2-5-|
A|-0~----5h6-5h6-5h8-5h8-5h8----8h9-8h9-8h11-8h11-8h11|-3-6--2-5-|
E|-0~-00----0---0---0---0----00----0---0----0----0----|-3-6--2-5-|
P.M   ..    .   .   .   .    ..    .   .    .
[ Tab from: http://www.guitaretab.com/t/trivium/99785.html ]
e|-------------------------------------------------|
B|-------------------------------------------------|
G|-------------------------------------------------|
D|-------------------------------------------------|
A|----5h6-5h6-5h8-5h8-5h8----8h9-8h9-8h11-8h11-8h11|
E|-00----0---0---0---0----00----0---0----0----0----|
P.M..    .   .   .   .    ..    .   .    .


e|----------------------------------------------| On the last time hold
B|----------------------------------------------| the first 5
G|----------------------------------------------|
D|-000-3-0-3-0-6-0-6-0-6--000-2-0-2-0-5-0-5-0-5-|
A|-000-3-0-3-0-6-0-6-0-6--000-2-0-2-0-5-0-5-0-5-|
E|-000-3-0-3-0-6-0-6-0-6--000-2-0-2-0-5-0-5-0-5-|
P.M...   .   .   .   .    ...   .   .   .   .

Bridge thing?
e|-----------------------------------------------|
B|-----------------------------------------------|
G|-----------------------------------------------|
D|-7/8\7------1p0--------7/8-7------1p0-0-4-0-3--|
A|-5/6\5------1p0--------5/6\5------1p0-0-4-0-3--|
E|-------0000-1p0-000000-------0000-1p0-0-4-0-3--|
P.M      ....     ......       ....     .   .

e|-----------------------------------------|
B|-----------------------------------------|
G|-----------------------------------------|
D|-7/8\7------1p0--------7/8\7------1-4-3--|
A|-5/6\5------1p0--------5/6\5------1-4-3--|
E|-------0000-1p0-000000-------0000-1-4-3--|
P.M      ....     ......       ....

Bit leading to solo...
e|----------------------------------|
B|----------------------------------|
G|----------------------------------|
D|-0-3-1-1-4-3-------------0-3-1-0--|
A|-0-3-1-1-4-3-------THEN--0-3-1-0--|
E|-0-3-1-1-4-3--X3---------0-3-1-0--|

Well that's all i got, i got a little bit of the next bit but honestly im just to lazy 
type it out. ill try and get the solo and stuff soon.
Thanks.
BTW dont forget this is completely by ear. so if its not the way they play it then 
me you dirty stuburn B***ards. [cant spell stuburn]
Related for Pillars Of Serpents tab
Advertisement will be closed in 10 seconds