Song name
# A B C D E F G H I J K L M N O P Q R S T U V W X Y Z

Trixter - Line Of Fire tab

Song: Line of fire
Artist: Trixter
Album: Trixter
Year: 1990
Tuning: A half step down
Tabbed by: Shredder

Intro (guitar one)
E|----------------------------------------|
B|----------------------------------------|
G|-7-7/9========7-7/9=====9-7-9-7---------|
D|-7-7/9========7-7/9=====--------9-7\5---|
A|-5-5/7========5-5/7=====--------------7-|
E|----------------------------------------|

Intro (guitar two)
E|-----------------------|
B|-----------------------|
G|-----------------------|
D|-----2===--------------|
A|-----------------------|
E|-3p0-----3h5p3==3b5r3==|

Main Rhythm figure (Chorus and Intro)(both guitars)
E|---------------------------------------------|
B|---------------------------------------------|
G|-9--9-7-7-7-7-7/9----------------------------|
D|-9--9-7-7-7-7-7/9----------------------------|
A|-7--7-5-5-5-5-5/7----4p0-5p0-4p0-2p0-4p0h5p0-|
E|-------------------0-------------------------|

Verse (both guitars)
E|-----------------------------------|
B|-----------------------------------|
G|-7/9-----7/9--6-7-7/9-----7/9--7-2-|
D|-7/9-----7/9--6-7-7/9-----7/9--7-2-|
A|-5/7-----5/7--4-5-5/7-----5/7--5-0-|
E|-----------------------------------|
play twice for full verse

Pre-Chorus (first both guitars)
E|------------------------------|
B|------------------------------|
G|-2--2----2--2----2--2----2--2-|
D|-2--2----2--2----2--2----2--2-|
A|-0--0----0--0----0--0----0--0-|
E|-------3-------3-------3------|

Pre-chorus (Continued, Guitar one)
E|-------------------------------|
B|-------------------------------|
G|-9--9--------12-9--9--------12-|
D|-9--9--11-12-12-9--9--11-12-12-|
A|-7--7--11-12-10-7--7--11-12-10-|
E|-------9--10----------9--10----|

Pre-chorus (Continued, Guitar two)
E|------------------------------------------|
B|------------------------------------------|
G|------------------------------------------|
D|-----------------(7)----------------------|
A|-9-7h9-9-7h9-7h9-----7h9-9-7h9-9-7h9-9~~~~|
E|------------------------------------------|

then repeat the first part of the pre-chorus and then both guitars play this

Pre-chorus (end, both guitars)
E|----------------------|
B|----------------------|
G|-4--4--4--4--4========|
D|-4--4--4--4--4========|
A|-2--2--2--2--2========|
E|----------------------|

There is also a small interlude played by the lead guitar just before the chorus

Interlude
E|---------------|
B|---------------|
G|-7h9-7---------|
D|-------9-7\5---|
A|-------------9-|
E|---------------|

Then just play the Main Rhythm figure for the chorus (used in the Intro)
Tap to rate this tab
# A B C D E F G H I J K L M N O P Q R S T U V W X Y Z