Guitaretab - guitar tabs
Song name
# A B C D E F G H I J K L M N O P Q R S T U V W X Y Z

Trocadero - Tex Is Here tab

This is the theme song from the Out of Mind mini-series.

This tab is 100% correct. This is how it is written on Trocadero's web site. Trocadero 
the band that writes/records all of Red vs. Blue's music.
I'll write exactly as it is there.
[ Tab from: http://www.guitaretab.com/t/trocadero/101750.html ]
e|-----------|-----------|-----------|-----------|-----------|
B|-----------|-----------|-----------|-----------|-----------|
G|-----------|-----------|-----------|-----------|-----------|
D|------2---2|----2---2--|------2---2|----2---2--|------2---2|
A|-----------|-----------|-----------|-----------|-----------|
E|0-3-0---0--|--0---0----|0-3-0---0--|--0---0----|0-3-0---0--|

e|-----------|-----------|-----------|-----------|-----------|
B|-----------|-----------|-----------|-----------|-----------|
G|-----------|-----------|-----------|-----------|-----------|
D|----2---2--|---2-----0-|----0------|-2---2-----|-2---2---2-|
A|-----------|-----------|--------0--|---0-------|-----------|
E|--0---0----|-0---0-3---|--3---3----|-------3-0-|---0---0---|

Link to web Trocadero's website: http://www.trocadero.net/
Related for Tex Is Here tab