Song name
# A B C D E F G H I J K L M N O P Q R S T U V W X Y Z

Troggs - Wild Thing tab

Chords used: ADE

Chorus:

e---0--0---2-2----------2-2------------------
B---2--2---3-3---0000---3-3------------------
G---2--2---2-2---1111---2-2------------------
D---2--2---0-0---2222---0-0------------------
A---0--0---0-0---2222---0-0------------------
E----------------0000------------------------

Verse:

e---0--0-------------------0--0--------------
B---0--2-------------------0--2--------------
G---0--2-------------------0--2--------------
D---0--2-------------------0--2--------------
A---0--0-------------------0--0--------------
E--------------------------------------------

And there you have it. Wild Thing.
Bewh bewh bana bon bon bon bon bana.
Whatever.
NAPSTER RULES!
Ta ta for now.
Tap to rate this tab
 
# A B C D E F G H I J K L M N O P Q R S T U V W X Y Z