Song name
# A B C D E F G H I J K L M N O P Q R S T U V W X Y Z

Troggs - Wild Thing tab

-------------------------------------------------------------------------------
			     Wild Thing - The Troggs
-------------------------------------------------------------------------------
Tabbed by:MichaelMurrayGuitar.com
Email:

Tuning: Standard

A good song for beginning players. It can be further simplified by playing 
power chords (remove the top 1 or 2 notes from the chords). The solo is also 
a good choice for someone just starting to play lead guitar. 

Intro

  (For reverse bend-bend note up before picking and let it down slowly)

e|---------------------------------------------------------------------------|
B|--------------------------------------7-7-7--9-9-9-9---9-9-----------------|
G|-7RB-----------------------------6-6--7-7-7--9-9-9-9---9-9-----------------|
D|---------------------------------7-7--7-7-7--9-9-9-9---9-9-----------------|
A|---------------------------------7-7--5-5-5--7-7-7-7---7-7-----------------|
E|---------------------------------5-5---------------------------------------|



Chorus
                           3times
e|---------------------------------------------------------------------------|
B|------7-7-7--9-9--7-7-7--------------------7-7-7--9-9-9-9------------------|
G|-6-6--7-7-7--9-9--7-7-7---------------7-7--7-7-7--9-9-9-9------------------|
D|-7-7--7-7-7--9-9--7-7-7---------------7-7--7-7-7--9-9-9-9------------------|
A|-7-7--5-5-5--7-7--5-5-5---------------7-7--5-5-5--7-7-7-7------------------|
E|-5-5----------------------------------5-5----------------------------------|

Verse
                4times
e|---------------------------------------------------------------------------|
B|---------------------------------------------------------------------------|
G|--5--6--5--6---------------------------------------------------------------|
D|--5--7--5--7---------------------------------------------------------------|
A|--5--7--5--7---------------------------------------------------------------|
E|---------------------------------------------------------------------------|

Solo (Arranged for guitar, on the recording it is played on a flute like 
      instrument called the ocarina) 

e|--------------------------------------5--------5-5-------------------------|
B|--8-8-5-8--5-8--5-8-8-5----------5-8----8--5-8------8-5-8-8-5--------------|
G|---------------------------------------------------------------------------|
D|---------------------------------------------------------------------------|
A|---------------------------------------------------------------------------|
E|---------------------------------------------------------------------------|

e|------5-5-7-7-5---------7-5---------7-5----------7-5-----------------------|
B|--5-8-----------8p7p5-------8p7p5-------8p7p5--------8-5-------------------|
G|---------------------------------------------------------------------------|
D|---------------------------------------------------------------------------|
A|---------------------------------------------------------------------------|
E|---------------------------------------------------------------------------|

                     (Here the ocarina is overblown creating a
                     trill like effect hard to imitate on the guitar)
e|--------------------------------------------5-5----------------------------|
B|--5-8-5-8-5--8-5---55555555555---------5-8---------------------------------|
G|---------------------------------------------------------------------------|
D|---------------------------------------------------------------------------|
A|---------------------------------------------------------------------------|
E|---------------------------------------------------------------------------|
Tap to rate this tab
 
# A B C D E F G H I J K L M N O P Q R S T U V W X Y Z