Song name
# A B C D E F G H I J K L M N O P Q R S T U V W X Y Z

Troggs - Wild Thing tab

Help us improve GuitareTab! Take a short survey!
This is my first tab so I hope I get it right. It's a VERY easy song so you beginers should be able to play this easy.

Wild Thing by The Troggs

Key:
= is let ring


INTRO(figure out the timing yourself slackers!):
e|-----------------------------------|
B|-----------------------------------|
G|----------2--2--2------------------|
D|---2--2---0--0--0------------------|
A|---0--0------------2-2-2=---2-2-2--|
E|-------------------0-0-0=---0-0-0--|

Part after the INTRO:
e|-----------------------------------|
B|-----------------------------------|
G|----------2-2-2----------2-2-2-----|   play 3 times 
D|----2-2---0-0-0----------0-0-0-----|
A|----0-0-----------2--2-------------|
E|------------------0--0-------------|

VERSE:
e|-------------------------------------|
B|-------------------------------------|
G|----------2-2-2----------------------|
D|---2--2---0-0-0---------------2----2=|
A|---0--0----------2-2-2-2------0----0=|
E|-----------------0-0-0-0---3-----3---|


e|-------------------------------------|
B|-------------------------------------|
G|-------------------------------------|
D|--------2------2=--------------------|
A|--------0------0=--------------------|
E|----3------3-------------------------|


e|-------------------------------------|
B|-------------------------------------|
G|-------------------------------------|
D|--------2------2=--------------------|
A|--------0------0=--------------------|
E|----3------3-------------------------|


e|-------------------------------------|
B|-------------------------------------|
G|-------------------------------------|
D|--------2------2=--------------------|
A|--------0------0=--------------------|
E|----3------3-------------------------|


INTERLUDE:
e|-----------------------------------|
B|-----------------------------------|   play this 2 times
G|----------2-2-2----------2-2-2-----|    
D|----2-2---0-0-0----------0-0-0-----|
A|----0-0-----------2--2-------------|
E|------------------0--0-------------|

CHORUS:
e|-----------------------------------|
B|-----------------------------------|    play this 3 times
G|----------2-2-2----------2-2-2-----|    
D|----2-2---0-0-0----------0-0-0-----|
A|----0-0-----------2--2-------------|
E|------------------0--0-------------|
...Wild Thing..

e|-----------------------------------|
B|-----------------------------------|
G|---------2-2-2---------------------|
D|---2-2---0-0-0---------------------|
A|---0-0-----------2-2---2-2=--------|
E|-----------------0-0---0-0=--------|

INSTRUMENTAL SOLO:
e|-----------------------------------|
B|-----------------------------------|
G|----------2-2-2----------2-2-2-----|   play this 2 times    
D|----2-2---0-0-0----------0-0-0-----|
A|----0-0-----------2--2-------------|
E|------------------0--0-------------|

e|--------------------------------------|
B|--------------------------------------|
G|---------2-2-2------------------------|  then play the VERSE all the way to the chorus 
D|---2-2---0-0-0-------------------2----|     
A|---0-0-----------2-2---2-2=------0----|
E|-----------------0-0---0-0=----3----3-|

after that play this:
e|-------------------------------------------------------------|
B|-------------------------------------------------------------|
G|-------------------------------------------------------------|
D|-------------------------------------------------------------|
A|--2-2-2-2=-2-2---2-2-2-2=-2-2--2-2-2-2-2-2-2-2-2-2-2-2-2-2-2-|
E|--0-0-0-0=-0-0---0-0-0-0=-0-0--0-0-0-0-0-0-0-0-0-0-0-0-0-0-0-|

OUTRO-CHORUS:
e|-----------------------------------|
B|-----------------------------------|
G|----------2-2-2----------2-2-2-----|    paly this 4 times    
D|----2-2---0-0-0----------0-0-0-----|
A|----0-0-----------2--2-------------|
E|------------------0--0-------------|

e|-----------------------------------|
B|-----------------------------------|
G|-----------------------------------|
D|-----2--2--------------------------|
A|-----0--0--------------------------|
E|-----------------------------------|
.....Come on now! Wild Thing


Any comments,questions or corrections should be sent to apologetixdude@msn.com 

Keep on rockin!
Related for Wild Thing tab