Song name
# A B C D E F G H I J K L M N O P Q R S T U V W X Y Z

Troll - Trollberg tab

I missed some parts of the song. Keep in mind that this was originally written for 
and that I have little or no experience with tabbing songs. If you have questions, please 
them to koldbrann[at]gmail[dot]com.

00:00 - 00:07

E[--------------------|---------------------------------------------------]
B[--------------------|---------------------------------------------------]
G[------------9-8-9---|---------------------------------------------------]
D[--------7-9-------9-|-10-9-7-10-9-7-------------------------------------]
A[-7-9-10-------------|---------------10-9-7-6----------------------------]
E[--------------------|------------------------7--------------------------]

00:07 - 00:14

E[--------------------|---------------------------------------------------]
B[--------------------|---------------------------------------------------]
G[------------9-8-9---|---------------------------------------------------]
D[--------7-9-------9-|-10-9-7--------------------------------------------]
A[-7-9-10-------------|--------10-10-9-6-10-7-----------------------------]
E[--------------------|---------------------------------------------------]

00:15 - 00:22

E[------------------------------------------------------------------------]
B[------------------------------------------------------------------------]
G[--------------10-10-9-10------------------------------------------------]
D[---------8-10------------10-11-10-8-11-10-8-----------------------------]
A[-8-10-11------------------------------------11-10-8-7-------------------]
E[------------------------------------------------------8-----------------]

00:23 - 00:30

E[------------------------------------------------------------------------]
B[------------------------------------------------------------------------]
G[--------------10-10-9-10------------------------------------------------]
D[---------8-10------------10-11-10-8-------------------------------------]
A[-8-10-11----------------------------11-11-10-7-11-8---------------------]
E[------------------------------------------------------------------------]

00:31 - 01:00

E[-------------------------------|----------------------------------------]
B[-------------------------------|----------------------------------------]
G[-------------------------------|----------------------------------------]
D[------------------7-9-9-9-10-9-|-10-10-10-9-7-7-7-9-10-10-10-12-10-9-10-]
A[-7-7-7-9-10-10-10--------------|----------------------------------------]
E[-------------------------------|----------------------------------------]

E[-------------------------------|----------------------------------------]
B[-------------------------------|----------------------------------------]
G[-------------------------------|----------------------------------------]
D[------------------7-9-9-9-10-9-|-10-10-10-9-7-7-7-9-10-10-10-12-10-9-10-]
A[-7-7-7-9-10-10-10--------------|----------------------------------------]
E[-------------------------------|----------------------------------------]

E[-------------------------------|----------------------------------------]
B[-------------------------------|----------------------------------------]
G[-------------------------------|----------------------------------------]
D[------------------7-9-9-9-10-9-|-10-10-10-9-7-7-7-9-10-10-10-12-10-9-10-]
A[-7-7-7-9-10-10-10--------------|----------------------------------------]
E[-------------------------------|----------------------------------------]

E[-------------------------------|----------------------------------------]
B[-------------------------------|----------------------------------------]
G[-------------------------------|----------------------------------------]
D[------------------7-9-9-9-10-9-|-10-10-10-9-7-7-7-9-10-10-10-12-10-9-10-]
A[-7-7-7-9-10-10-10--------------|----------------------------------------]
E[-------------------------------|----------------------------------------]

PAUSE From 01:00 - 01:15


01:16 - 01:46

E[-------------------------------|----------------------------------------]
B[-------------------------------|----------------------------------------]
G[-------------------------------|----------------------------------------]
D[------------------7-9-9-9-10-9-|-10-10-10-9-7-7-7-9-10-10-10-12-10-9-10-]
A[-7-7-7-9-10-10-10--------------|----------------------------------------]
E[-------------------------------|----------------------------------------]

E[-------------------------------|----------------------------------------]
B[-------------------------------|----------------------------------------]
G[-------------------------------|----------------------------------------]
D[------------------7-9-9-9-10-9-|-10-10-10-9-7-7-7-9-10-10-10-12-10-9-10-]
A[-7-7-7-9-10-10-10--------------|----------------------------------------]
E[-------------------------------|----------------------------------------]

E[-------------------------------|----------------------------------------]
B[-------------------------------|----------------------------------------]
G[-------------------------------|----------------------------------------]
D[------------------7-9-9-9-10-9-|-10-10-10-9-7-7-7-9-10-10-10-12-10-9-10-]
A[-7-7-7-9-10-10-10--------------|----------------------------------------]
E[-------------------------------|----------------------------------------]

E[-------------------------------|----------------------------------------]
B[-------------------------------|----------------------------------------]
G[-------------------------------|----------------------------------------]
D[------------------7-9-9-9-10-9-|-10-10-10-9-7-7-7-9-10-10-10-12-10-9-10-]
A[-7-7-7-9-10-10-10--------------|----------------------------------------]
E[-------------------------------|----------------------------------------]

PAUSE From 01:47 - 02:01

02:02 - 02:10

E[-----------------|-----------------|------------------------------------]
B[-----------------|-----------------|------------------------------------]
G[-----------------|-----------------|------------------------------------]
D[-----------------|-----------------|------------------------------------]
A[---2---2---2---2-|---2---2---2---2-|------------------------------------]
E[-0---0---0---0---|-0---0---0---0---|------------------------------------]

02:10 - 02:40

E[-----------------------|------------------------------------------------]
B[-----------------------|------------------------------------------------]
G[-----------------------|------------------------------------------------]
D[-----------------------|------------------------------------------------]
A[-9-10-7-9-10-12-10-9-7-|-9-10-7-9-10-12-10-9-7-6-7----------------------]
E[-----------------------|------------------------------------------------]

E[-----------------------|------------------------------------------------]
B[-----------------------|------------------------------------------------]
G[-----------------------|------------------------------------------------]
D[-----------------------|------------------------------------------------]
A[-9-10-7-9-10-12-10-9-7-|-9-10-7-9-10-12-10-9-7-6-7----------------------]
E[-----------------------|------------------------------------------------]

02:40 - 03:11

E[------------|-------------|---------------------------------------------]
B[------------|-------------|---------------------------------------------]
G[---9--------|-------------|---9-----------------------------------------]
D[-9---9-10-9-|-9-10-9-10-9-|-9---9-10-9-10-9-10-9-10---------------------]
A[------------|-------------|---------------------------------------------]
E[------------|-------------|---------------------------------------------]

E[------------|-------------|---------------------------------------------]
B[------------|-------------|---------------------------------------------]
G[---9--------|-------------|---9-----------------------------------------]
D[-9---9-10-9-|-9-10-9-10-9-|-9---9-10-9-10-9-10-9-10---------------------]
A[------------|-------------|---------------------------------------------]
E[------------|-------------|---------------------------------------------]

E[------------|-------------|---------------------------------------------]
B[------------|-------------|---------------------------------------------]
G[---9--------|-------------|---9-----------------------------------------]
D[-9---9-10-9-|-9-10-9-10-9-|-9---9-10-9-10-9-10-9-10---------------------]
A[------------|-------------|---------------------------------------------]
E[------------|-------------|---------------------------------------------]


E[------------|-------------|---------------------------------------------]
B[------------|-------------|---------------------------------------------]
G[---9--------|-------------|---9-----------------------------------------]
D[-9---9-10-9-|-9-10-9-10-9-|-9---9-10-9-10-9-10-9-10---------------------]
A[------------|-------------|---------------------------------------------]
E[------------|-------------|---------------------------------------------]

03:12 - 03:42

E[-----------------------|------------------------------------------------]
B[-----------------------|------------------------------------------------]
G[-----------------------|------------------------------------------------]
D[-----------------------|------------------------------------------------]
A[-9-10-7-9-10-12-10-9-7-|-9-10-7-9-10-12-10-9-7-6-7----------------------]
E[-----------------------|------------------------------------------------]

E[-----------------------|------------------------------------------------]
B[-----------------------|------------------------------------------------]
G[-----------------------|------------------------------------------------]
D[-----------------------|------------------------------------------------]
A[-9-10-7-9-10-12-10-9-7-|-9-10-7-9-10-12-10-9-7-6-7----------------------]
E[-----------------------|------------------------------------------------]

03:42 - 04:18

E[------------|-------------|---------------------------------------------]
B[------------|-------------|---------------------------------------------]
G[---9--------|-------------|---9-----------------------------------------]
D[-9---9-10-9-|-9-10-9-10-9-|-9---9-10-9-10-9-10-9-10---------------------]
A[------------|-------------|---------------------------------------------]
E[------------|-------------|---------------------------------------------]

E[------------|-------------|---------------------------------------------]
B[------------|-------------|---------------------------------------------]
G[---9--------|-------------|---9-----------------------------------------]
D[-9---9-10-9-|-9-10-9-10-9-|-9---9-10-9-10-9-10-9-10---------------------]
A[------------|-------------|---------------------------------------------]
E[------------|-------------|---------------------------------------------]

E[------------|-------------|---------------------------------------------]
B[------------|-------------|---------------------------------------------]
G[---9--------|-------------|---9-----------------------------------------]
D[-9---9-10-9-|-9-10-9-10-9-|-9---9-10-9-10-9-10-9-10---------------------]
A[------------|-------------|---------------------------------------------]
E[------------|-------------|---------------------------------------------]

E[------------|-------------|---------------------------------------------]
B[------------|-------------|---------------------------------------------]
G[---9--------|-------------|---9-----------------------------------------]
D[-9---9-10-9-|-9-10-9-10-9-|-9---9-10-9-10-9-10-9-10---------------------]
A[------------|-------------|---------------------------------------------]
E[------------|-------------|---------------------------------------------]
Tap to rate this tab
 
# A B C D E F G H I J K L M N O P Q R S T U V W X Y Z