Song name
# A B C D E F G H I J K L M N O P Q R S T U V W X Y Z

Troll - Drep De Kristne tab

Help us improve GuitareTab! Take a short survey!
Troll - Drep de Kristne (From the "Drep the Kristne" album)

Transcribed by Fredrik Karlsson aka Psycho
(Battlescar_psy@hotmail.com)

Riff 1
E[-----------------------------------------|-------------------------------]
B[-----------------------------------------|-------------------------------]
G[-----------------------------------------|-------------------------------]
D[-----------------------------------------|-------------------------------]
A[-7-7-7-7-7-7-7-7-11-11-11-11-10-10-10-10-|-7-7-7-7-7-7-7-7-11-11-11-11---]
E[-----------------------------------------|-------------------------------]

Riff 1 (cont'd)
E[---------|-------------------------------------|-------------------------]
B[---------|-------------------------------------|-------------------------]
G[---------|-------------------------------------|-------------------------]
D[---------|-----------------8-8-8-8-------------|-----------------9-9-9-9-]
A[-8-8-8-8-|-7-7-7-7-7-7-7-7---------10-10-10-10-|-7-7-7-7-7-7-7-7---------]
E[---------|-------------------------------------|-------------------------]

Riff 1 (cont'd)
E[-------------------------------------------------------------------------]
B[-------------------------------------------------------------------------]
G[-------------------------------------------------------------------------]
D[-8-8-8-8-----------------------------------------------------------------]
A[-------------------------------------------------------------------------]
E[-------------------------------------------------------------------------]

Riff 2
E[------------------------------------11-|---------------------------------]
B[-----8--------9--------8---------12----|-----8--------9--------8---------]
G[---9---9---10---10---9---9----13-------|---9---9---10---10---9---9----12-]
D[---------------------------------------|---------------------------------]
A[-7-------8---------7-------11----------|-7-------8---------7-------10----]
E[---------------------------------------|---------------------------------]

Riff 2 (cont'd)
E[----10-------------------------------------------------------------------]
B[-11----------------------------------------------------------------------]
G[-------------------------------------------------------------------------]
D[-------------------------------------------------------------------------]
A[-------------------------------------------------------------------------]
E[-------------------------------------------------------------------------]

Riff 3
E[-------------------------------------------------------------------------]
B[-------------------------------------------------------------------------]
G[-------------------------------------------------------------------------]
D[-------------------------------------------------------------------------]
A[-77777777666666665555555544444444----------------------------------------]
E[-------------------------------------------------------------------------]

Riff 4 (pick fast)
E[-------------------------------------------------------------------------]
B[-------------------------------------------------------------------------]
G[-------------------------------------------------------------------------]
D[-------------------------------------------------------------------------]
A[-10-9-6-9-10-9-6-9-13-12-9-12-13-12-9-12---------------------------------]
E[-------------------------------------------------------------------------]
Related for Drep De Kristne tab