Song name
# A B C D E F G H I J K L M N O P Q R S T U V W X Y Z

Troll - I Et Hedensk Land tab

Artist: Troll
Title: I et hedensk land
Album: Trollstorm over Nidinggjuv

Tabbed by elc (elc@o2.pl;elc@poczta.onet.pl)

Lots of distortion + tremolo picking all the song

Riff 1
e|-----------------------------------------------------------------|
B|-----------------------------------------------------------------|
G|-10--------------10--------------10--------------10--------------|
D|-11--------------10--------------11--------------10--------------|
A|-8---------------8---------------8---------------8---------------|
E|-----------------------------------------------------------------|

e|-----------------------------------------------------------------|
B|-----------------------------------------------------------------|
G|-9---------------9---------------9---------------9---------------|
D|-10--------------9---------------10--------------9---------------|
A|-7---------------7---------------7---------------7---------------|
E|-----------------------------------------------------------------|

Riff 2
e|-----------------------------------------------------------------|
B|-----------------------------------------------------------------|
G|-----------------------------------------------------------------|
D|-----------------------------------------------------------------|
A|-8---------------7---------------8---------------7---------------|
E|-9---------------9---------------5---------------5---------------|

Riff 3
e|-----------------------------------------------------------------|
B|-------------8---9---------------------------8---9---------------|
G|-------------9---10--------------------------9---10--------------|
D|-9-----------9---10--------------9-----------9---10------10------|
A|-7-----------7---8---------------7-----------7---8-------8-------|
E|-7-------------------------------7-----------------------8-------|

Riff 4
e|-----------------------------------------------------------------|
B|-----------------------------------------------------------------|
G|-----------------------------------------------------------------|
D|-----------------------------------------------------------------|
A|-5---------------5---------------4---------------4---------------|
E|-3---------------7---------------2---------------5---------------|
Tap to rate this tab
# A B C D E F G H I J K L M N O P Q R S T U V W X Y Z