Song name
# A B C D E F G H I J K L M N O P Q R S T U V W X Y Z

Troll - Trollstorm Over Nidinggjuv tab

Artist: Troll
Title: Trollstorm over Nidinggjuv
Album: Trollstorm over Nidinggjuv

Tabbed by elc (elc@o2.pl;elc@poczta.onet.pl)

Lots of distortion + tremolo picking all the song

Riff 1, song begins from this moment -----------\
Guitar 1                                        |
e|----------------------------------------------|--|
B|----------------------------------------------|--|
G|-3---3-3---3-3---3-------3---3-3---3-3---3----|--|
D|-3---3-3---3-3---3-2-2-2-3---3-3---3-3---3-2-2|2-|
A|-1---1-1---1-1---1-2-2-2-1---1-1---1-1---1-2-2|2-|
E|-------------------0-0-0-------------------0-0|0-|

Guitar 2
e|-------------------------------------------------|
B|-------------------------------------------------|
G|-3---3-3---3-3---3-9-9-9-3---3-3---3-3---3-9-9-9-|
D|-3---3-3---3-3---3-9-9-9-3---3-3---3-3---3-9-9-9-|
A|-1---1-1---1-1---1-7-7-7-1---1-1---1-1---1-7-7-7-|
E|-------------------0-0-0-------------------0-0-0-|

Riff 2
e|-------------------------------------------------|
B|-------------------------------------------------|
G|-4-----------3--------------------------------3--|
D|-4-----------3--------3--7-----------6--------3--|
A|-2-----------1--------3--7-----------6--------1--|
E|----------------------1--5-----------4-----------|

e|-------------------------------------------------|
B|-------------------------------------------------|
G|-4-----------3-----------------------------------|
D|-4-----------3--------3--7-----------6--------2--|
A|-2-----------1--------3--7-----------6--------2--|
E|----------------------1--5-----------4--------0--|

Riff 3, guitar 2 starts playing from 3rd time,
Guitar 1
e|-----------------------------------------------------------------|
B|-------8---8-----------8---8-----------7---7-----------7---7-----|
G|-----9---9---9-------9---9---9-------8---8---8-------8---8---8---|
D|---9-----------9---9-----------9---8-----------8---8-----------8-|
A|-7---------------7---------------6---------------6---------------|
E|-----------------------------------------------------------------|

Guitar 2
e|-----------------------------------------------------------------|
B|-8---------------8---------------7---------------7---------------|
G|-9---------------9---------------8---------------8---------------|
D|-9---------------9---------------8---------------8---------------|
A|-7---------------7---------------6---------------6---------------|
E|-7---------------7---------------6---------------6---------------|
Tap to rate this tab
# A B C D E F G H I J K L M N O P Q R S T U V W X Y Z