Song name
# A B C D E F G H I J K L M N O P Q R S T U V W X Y Z

Tronic - Idiotas tab

Aki les dejo esta tablaura que esta re-facil...y bueh! espero que le sirva de algo
a aquel quien le gusta Tronic y kiere aprender a tocar todas sus canciones  XD!

   Acordes de 5ta que se utilizan en la cancion XD!

    La5         Fa#5           Do#5          Mi5            Re5

1)------||    1)------||    1)------||    1)------||    1)------||
2)------||    2)------||    2)------||    2)------||    2)------||
3)------||    3)------||    3)---6--||    3)---9--||    3)---7--||
4)---7--||    4)---4--||    4)---6--||    4)---9--||    4)---7--||
5)---7--||    5)---4--||    5)---4--||    5)---7--||    5)---5--||
6)---5--||    6)---2--||    6)------||    6)------||    6)------||


   Sol#5         Si#5

1)------||    1)------||
2)------||    2)------||
3)------||    3)---4--||
4)---6--||    4)---4--||
5)---6--||    5)---2--||
6)---4--||    6)------||


Intro: La

A)

La5                Fa#5
Que dificil es aceptar a personas

        Do#5        Mi5
que no aportan y solo odian

La5                          Fa#5
Siempre quejandose de que el país

                   Do#5              Mi5
no está al nivel de ellos, son extranjeros

B)

La5     Sol#5       Fa#5
Esos que odian a Bush

     Do#5        Re5                         Mi5
Y por eso rompen todo lo que hay en nuestras calles

   Re5    Do#5
No son chilenos

Coro:

La5                         Fa#5
Vallanse que aquí no se necesitan idiotas

     Re5                            Mi5
Que piensan que romper la ciudad es como defender al país

A)

La5                Fa#5
Que dificil es aceptar a la gente

       Do#5           Mi5
que predican y no practican

La5                     Fa#5
Se que no les gusta trabajar

                    Do#5             Mi5
y por eso escriben mierda robate la cuenta

B)
 La5     sol#5         fa#5       Do#5
    Como puedes criticar en 5 minutos un


   Re5                     Mi5
trabajo que se ha demorado meses

    Re5    Do#5
No eres profesional

Coro:

La5                         Fa#5
Vallanse que aquí no se necesitan idiotas

Re5                          Mi5
hablan mal de nuestro país y sin embargo viven aquí

La5                        Fa#5                Re5
Prefieren siempre lo extranjero y no lo nacional

                    Mi5
Amigo tu estás mal así no vamos a progresar

Solo:

1)----------------------------------------------------||
2)----------------------------------------------------||
3)-11-13-14-------------------------------------------||
4)-------------14-12p11-14-12p11-14-12p11-------------||
5)----------------------------------------------------||
6)----------------------------------------------------||

1) -----------------------------------------------------------------||
2) -----------------------------------------------------------------||
3)-----------------------------------------------11-13-14-----16-13-||
4)-11-11-11-12-14----11-11-11-11-11-12-14------------------14-------||
5)----------------12-------------------------11---------------------||
6)------------------------------------------------------------------||


1)-------------------------------------------------------------------||
2)-------------------------------------------------------------------||
3)-14-13---16-14-13----13-14-13----16-14-13----13-14p13----16p13-----||
4)-------14---------14----------14----------14----------14--------14-||
5)-------------------------------------------------------------------||
6)-------------------------------------------------------------------||

1)-----------------------------------------------------||
2)-----------------------------------------------------||
3)-14p13----16p13---16p13----14p13----16p13----14(x16)-||
4)-------14---------------14--------14------14---------||
5)-----------------------------------------------------||
6)-----------------------------------------------------||


B)

La5      Sol#5           Fa#5         Do#5
 Cómo puede ser que el sello gane más

         Re5                         Mi5
que el artista que ha creado las canciones

   Re5     Do#5
Ya no más de eso

Coro:

La5                         Fa#5
Vallanse que aquí no se necesitan idiotas

    Re5                Mi5
Si piensan en ..... y no entienden lo musical

La5                         Fa#5
Vallanse que aquí no se necesitan primates

 Re5                            Mi5
Que piensan que romper la ciudad es como defender al país

La5                        Fa#5                Re5
Prefieren siempre lo extranjero y no lo nacional

                   Mi5                   Re5 Do#5 Si5 La5
Amigo tu estás mal así no vamos a progresaaaaaaaaaaaaaaaaar

bueh! espero que le sirva de algo XD! el solo esta bien hecho XDDD!
Tap to rate this tab
 
# A B C D E F G H I J K L M N O P Q R S T U V W X Y Z