Song name
# A B C D E F G H I J K L M N O P Q R S T U V W X Y Z

Tronic - Aceptar tab

Intro y verso:

e-------------------------------------------------|
B-------------------------------------------------|
G-6------9------4------6--------------------------|
D-6-x16--9-x16--4-x16--6-x16----------------------|y de nuevo too el verso
A-4------7------2------4--------------------------|
E-------------------------------------------------|

Aceptar al q no es = a ti es madurar...


Coro:

e-------------------------|
B-------------------------|
G-------------9-9-x-------|
D-7-7-x-9-9-x-9-9-x-4-4-4-| X3
A-7-7-x-9-9-x-7-7-x-4-4-4-|
E-5-5-x-7-7-x-------2-2-2-|

Nada le gana a la sinceridad...

e-------------|
B-------------|
G-------------|
D-7-----9-----|
A-7-x16-9-x16-|
E-5-----7-----|

Tnto egoísmo...

----------------------------------------------------------------------------

Y weno despues el otro verso es = ...y despues cuando se alarga el coro es lo mismo en 
(puede q con el X16 me ekivoke...pq no puedo contar bien las veces asiq traten d tocar 
la cancion detras y vean...si no es asi lean mas abajo)

----------------------------------------------------------------------------

Espero les haya servido la tab y les guste la kancion...kualkier cosa, correccion, 
o peticion de canciones q les interese a:

ichis9000@hotmail.com
Tap to rate this tab
# A B C D E F G H I J K L M N O P Q R S T U V W X Y Z